  0
SECTION
  2
HEADER
  9
$ACADVER
  1
AC1006
  9
$AXISMODE
 70
     0
  9
$AXISUNIT
 10
0.0625
 20
0.0625
  9
$CECOLOR
 62
0
  9
$CELTYPE
  6
CONTINUOUS
  9
$CLAYER
  8
LAYER1
  9
$EXTMIN
 10
0
 20
0
  9
$EXTMAX
 10
20.6701
 20
10.8628
  9
$LIMMIN
 10
0
 20
0
  9
$LIMMAX
 10
20.6701
 20
10.8628
  9
$GRIDMODE
 70
     0
  9
$GRIDUNIT
 10
0.125
 20
0.125
  9
$MIRRTEXT
 70
     1
  9
$SNAPMODE
 70
     1
  9
$SNAPUNIT
 10
0.125
 20
0
  9
$SNAPSTYLE
 70
     0
  9
$SPLINESEGS
 70
     8
  9
$SPLINETYPE
 70
     6
  0
ENDSEC
  0
SECTION
  2
TABLES
  0TABLE  2VPORT 70     2  0VPORT  2*ACTIVE 70     0 100.0 200.0 111.0 211.0 1213.01087 224.5 130.0 230.0 141.0 241.0 150.0 250.0 160.0 260.0 361.0 170.0 270.0 370.0 409.0 412.891304 4250.0 430.0 440.0 500.0 510.0 71     0 72   100 73     1 74     1 75     0 76     0 77     0 78     0  0ENDTAB
  0
TABLE
  2
LTYPE
 70
     1
  0
LTYPE
  2
CONTINUOUS
 70
    64
  3
Descriptive Text
 72
    65
 73
     0
 40
0
  0
ENDTAB
  0
TABLE
  2
LAYER
 70
     1
  0
LAYER
  2
LAYER1
 70
     0
 62
     7
  6
CONTINUOUS
  0
ENDTAB
  0TABLE  2STYLE 70     1  0STYLE  2STANDARD 70     0 400.0 411.0 500.0 71     0 420.2  3txt  4  0ENDTAB
  0
TABLE
  2
VIEW
 70
     0
  0
ENDTAB
  0
TABLE
  2
UCS
 70
     0
  0
ENDTAB
  0
TABLE
  2
DWGMGR
 70
     0
  0
ENDTAB
  0
ENDSEC
  0
SECTION
  2
BLOCKS
  0
BLOCK
  8
LAYER1
  2
Group1
 70
     0
 10
0
 20
0
 30
0
  0
POLYLINE
  8
LAYER1
  6
CONTINUOUS
 62
     7
 66
     1
 70
     0
 40
0.0039
 41
0.0039
  0
VERTEX
  8
LAYER1
 10
16.0278
 20
9.2101
 30
0
 70
     0
  0
VERTEX
  8
LAYER1
 10
16.0278
 20
9.1823
 30
0
 70
     0
  0
VERTEX
  8
LAYER1
 10
16.0139
 20
9.1128
 30
0
 70
     0
  0
VERTEX
  8
LAYER1
 10
15.9861
 20
9.0573
 30
0
 70
     0
  0
VERTEX
  8
LAYER1
 10
15.9444
 20
9.0017
 30
0
 70
     0
  0
VERTEX
  8
LAYER1
 10
15.9167
 20
8.974
 30
0
 70
     0
  0
VERTEX
  8
LAYER1
 10
15.8889
 20
8.9462
 30
0
 70
     0
  0
VERTEX
  8
LAYER1
 10
15.8472
 20
8.9184
 30
0
 70
     0
  0
VERTEX
  8
LAYER1
 10
15.7917
 20
8.8906
 30
0
 70
     0
  0
VERTEX
  8
LAYER1
 10
15.7222
 20
8.8767
 30
0
 70
     0
  0
VERTEX
  8
LAYER1
 10
15.6806
 20
8.8767
 30
0
 70
     0
  0
VERTEX
  8
LAYER1
 10
15.6528
 20
8.8767
 30
0
 70
     0
  0
VERTEX
  8
LAYER1
 10
15.5694
 20
8.8906
 30
0
 70
     0
  0
VERTEX
  8
LAYER1
 10
15.5139
 20
8.9184
 30
0
 70
     0
  0
VERTEX
  8
LAYER1
 10
15.4722
 20
8.9462
 30
0
 70
     0
  0
VERTEX
  8
LAYER1
 10
15.4444
 20
8.974
 30
0
 70
     0
  0
VERTEX
  8
LAYER1
 10
15.4167
 20
9.0017
 30
0
 70
     0
  0
VERTEX
  8
LAYER1
 10
15.375
 20
9.0573
 30
0
 70
     0
  0
VERTEX
  8
LAYER1
 10
15.3472
 20
9.1128
 30
0
 70
     0
  0
VERTEX
  8
LAYER1
 10
15.3333
 20
9.1684
 30
0
 70
     0
  0
VERTEX
  8
LAYER1
 10
15.3333
 20
9.2101
 30
0
 70
     0
  0
VERTEX
  8
LAYER1
 10
15.3333
 20
9.2517
 30
0
 70
     0
  0
VERTEX
  8
LAYER1
 10
15.3472
 20
9.3212
 30
0
 70
     0
  0
VERTEX
  8
LAYER1
 10
15.375
 20
9.3767
 30
0
 70
     0
  0
VERTEX
  8
LAYER1
 10
15.4167
 20
9.4323
 30
0
 70
     0
  0
VERTEX
  8
LAYER1
 10
15.4444
 20
9.4601
 30
0
 70
     0
  0
VERTEX
  8
LAYER1
 10
15.4722
 20
9.4878
 30
0
 70
     0
  0
VERTEX
  8
LAYER1
 10
15.5139
 20
9.5156
 30
0
 70
     0
  0
VERTEX
  8
LAYER1
 10
15.5694
 20
9.5434
 30
0
 70
     0
  0
VERTEX
  8
LAYER1
 10
15.6528
 20
9.5573
 30
0
 70
     0
  0
VERTEX
  8
LAYER1
 10
15.6806
 20
9.5573
 30
0
 70
     0
  0
VERTEX
  8
LAYER1
 10
15.7222
 20
9.5573
 30
0
 70
     0
  0
VERTEX
  8
LAYER1
 10
15.7917
 20
9.5434
 30
0
 70
     0
  0
VERTEX
  8
LAYER1
 10
15.8472
 20
9.5156
 30
0
 70
     0
  0
VERTEX
  8
LAYER1
 10
15.8889
 20
9.4878
 30
0
 70
     0
  0
VERTEX
  8
LAYER1
 10
15.9167
 20
9.4601
 30
0
 70
     0
  0
VERTEX
  8
LAYER1
 10
15.9444
 20
9.4323
 30
0
 70
     0
  0
VERTEX
  8
LAYER1
 10
15.9861
 20
9.3767
 30
0
 70
     0
  0
VERTEX
  8
LAYER1
 10
16.0139
 20
9.3212
 30
0
 70
     0
  0
VERTEX
  8
LAYER1
 10
16.0278
 20
9.2517
 30
0
 70
     0
  0
VERTEX
  8
LAYER1
 10
16.0278
 20
9.224
 30
0
 70
     0
  0
SEQEND
  0
POLYLINE
  8
LAYER1
  6
CONTINUOUS
 62
     7
 66
     1
 70
     0
 40
0.0039
 41
0.0039
  0
VERTEX
  8
LAYER1
 10
15.875
 20
9.2101
 30
0
 70
     0
  0
VERTEX
  8
LAYER1
 10
15.875
 20
9.1962
 30
0
 70
     0
  0
VERTEX
  8
LAYER1
 10
15.8611
 20
9.1545
 30
0
 70
     0
  0
VERTEX
  8
LAYER1
 10
15.8472
 20
9.1267
 30
0
 70
     0
  0
VERTEX
  8
LAYER1
 10
15.8333
 20
9.099
 30
0
 70
     0
  0
VERTEX
  8
LAYER1
 10
15.8194
 20
9.0851
 30
0
 70
     0
  0
VERTEX
  8
LAYER1
 10
15.8056
 20
9.0712
 30
0
 70
     0
  0
VERTEX
  8
LAYER1
 10
15.7639
 20
9.0434
 30
0
 70
     0
  0
VERTEX
  8
LAYER1
 10
15.7361
 20
9.0295
 30
0
 70
     0
  0
VERTEX
  8
LAYER1
 10
15.7083
 20
9.0295
 30
0
 70
     0
  0
VERTEX
  8
LAYER1
 10
15.6806
 20
9.0295
 30
0
 70
     0
  0
VERTEX
  8
LAYER1
 10
15.6667
 20
9.0295
 30
0
 70
     0
  0
VERTEX
  8
LAYER1
 10
15.625
 20
9.0295
 30
0
 70
     0
  0
VERTEX
  8
LAYER1
 10
15.5972
 20
9.0434
 30
0
 70
     0
  0
VERTEX
  8
LAYER1
 10
15.5556
 20
9.0712
 30
0
 70
     0
  0
VERTEX
  8
LAYER1
 10
15.5417
 20
9.0851
 30
0
 70
     0
  0
VERTEX
  8
LAYER1
 10
15.5278
 20
9.099
 30
0
 70
     0
  0
VERTEX
  8
LAYER1
 10
15.5139
 20
9.1267
 30
0
 70
     0
  0
VERTEX
  8
LAYER1
 10
15.5
 20
9.1545
 30
0
 70
     0
  0
VERTEX
  8
LAYER1
 10
15.4861
 20
9.1962
 30
0
 70
     0
  0
VERTEX
  8
LAYER1
 10
15.4861
 20
9.2101
 30
0
 70
     0
  0
VERTEX
  8
LAYER1
 10
15.4861
 20
9.224
 30
0
 70
     0
  0
VERTEX
  8
LAYER1
 10
15.5
 20
9.2795
 30
0
 70
     0
  0
VERTEX
  8
LAYER1
 10
15.5139
 20
9.3073
 30
0
 70
     0
  0
VERTEX
  8
LAYER1
 10
15.5278
 20
9.3351
 30
0
 70
     0
  0
VERTEX
  8
LAYER1
 10
15.5417
 20
9.349
 30
0
 70
     0
  0
VERTEX
  8
LAYER1
 10
15.5556
 20
9.3628
 30
0
 70
     0
  0
VERTEX
  8
LAYER1
 10
15.5833
 20
9.3767
 30
0
 70
     0
  0
VERTEX
  8
LAYER1
 10
15.6111
 20
9.3906
 30
0
 70
     0
  0
VERTEX
  8
LAYER1
 10
15.6667
 20
9.4045
 30
0
 70
     0
  0
VERTEX
  8
LAYER1
 10
15.6806
 20
9.4045
 30
0
 70
     0
  0
VERTEX
  8
LAYER1
 10
15.7083
 20
9.4045
 30
0
 70
     0
  0
VERTEX
  8
LAYER1
 10
15.75
 20
9.3906
 30
0
 70
     0
  0
VERTEX
  8
LAYER1
 10
15.7778
 20
9.3767
 30
0
 70
     0
  0
VERTEX
  8
LAYER1
 10
15.8056
 20
9.3628
 30
0
 70
     0
  0
VERTEX
  8
LAYER1
 10
15.8194
 20
9.349
 30
0
 70
     0
  0
VERTEX
  8
LAYER1
 10
15.8472
 20
9.3212
 30
0
 70
     0
  0
VERTEX
  8
LAYER1
 10
15.875
 20
9.2517
 30
0
 70
     0
  0
VERTEX
  8
LAYER1
 10
15.875
 20
9.224
 30
0
 70
     0
  0
SEQEND
  0
LINE
  8
LAYER1
  6
CONTINUOUS
 62
     7
 10
15.875
 20
9.224
 30
0
 11
16.0278
 21
9.224
 31
0
  0
ENDBLK
  8
LAYER1
  0
BLOCK
  8
LAYER1
  2
Group2
 70
     0
 10
0
 20
0
 30
0
  0
LINE
  8
LAYER1
  6
CONTINUOUS
 62
     7
 10
15.875
 20
9.2101
 30
0
 11
16.0278
 21
9.2101
 31
0
  0
LINE
  8
LAYER1
  6
CONTINUOUS
 62
     7
 10
16.3194
 20
9.5573
 30
0
 11
16.3194
 21
8.8767
 31
0
  0
LINE
  8
LAYER1
  6
CONTINUOUS
 62
     7
 10
16.2222
 20
8.8767
 30
0
 11
16.2222
 21
9.5573
 31
0
  0
POLYLINE
  8
LAYER1
  6
CONTINUOUS
 62
     7
 66
     1
 70
     0
 40
0.0039
 41
0.0039
  0
VERTEX
  8
LAYER1
 10
16.1806
 20
9.224
 30
0
 70
     0
  0
VERTEX
  8
LAYER1
 10
16.2778
 20
9.224
 30
0
 70
     0
  0
VERTEX
  8
LAYER1
 10
16.3194
 20
9.5573
 30
0
 70
     0
  0
VERTEX
  8
LAYER1
 10
16.2222
 20
9.5573
 30
0
 70
     0
  0
VERTEX
  8
LAYER1
 10
16.1806
 20
9.224
 30
0
 70
     0
  0
SEQEND
  0
POLYLINE
  8
LAYER1
  6
CONTINUOUS
 62
     7
 66
     1
 70
     0
 40
0.0039
 41
0.0039
  0
VERTEX
  8
LAYER1
 10
16.3611
 20
9.2101
 30
0
 70
     0
  0
VERTEX
  8
LAYER1
 10
16.2639
 20
9.2101
 30
0
 70
     0
  0
VERTEX
  8
LAYER1
 10
16.2222
 20
8.8767
 30
0
 70
     0
  0
VERTEX
  8
LAYER1
 10
16.3194
 20
8.8767
 30
0
 70
     0
  0
VERTEX
  8
LAYER1
 10
16.3611
 20
9.2101
 30
0
 70
     0
  0
SEQEND
  0
ENDBLK
  8
LAYER1
  0
BLOCK
  8
LAYER1
  2
Group3
 70
     0
 10
0
 20
0
 30
0
  0
POLYLINE
  8
LAYER1
  6
CONTINUOUS
 62
     7
 66
     1
 70
     0
 40
0.0039
 41
0.0039
  0
VERTEX
  8
LAYER1
 10
17.5417
 20
9.1406
 30
0
 70
     0
  0
VERTEX
  8
LAYER1
 10
17.5417
 20
9.1128
 30
0
 70
     0
  0
VERTEX
  8
LAYER1
 10
17.5278
 20
9.0434
 30
0
 70
     0
  0
VERTEX
  8
LAYER1
 10
17.5
 20
8.974
 30
0
 70
     0
  0
VERTEX
  8
LAYER1
 10
17.4583
 20
8.9045
 30
0
 70
     0
  0
VERTEX
  8
LAYER1
 10
17.4306
 20
8.8767
 30
0
 70
     0
  0
VERTEX
  8
LAYER1
 10
17.4028
 20
8.849
 30
0
 70
     0
  0
VERTEX
  8
LAYER1
 10
17.3333
 20
8.8073
 30
0
 70
     0
  0
VERTEX
  8
LAYER1
 10
17.2639
 20
8.7795
 30
0
 70
     0
  0
VERTEX
  8
LAYER1
 10
17.1944
 20
8.7656
 30
0
 70
     0
  0
VERTEX
  8
LAYER1
 10
17.1528
 20
8.7656
 30
0
 70
     0
  0
VERTEX
  8
LAYER1
 10
17.1111
 20
8.7656
 30
0
 70
     0
  0
VERTEX
  8
LAYER1
 10
17.0417
 20
8.7795
 30
0
 70
     0
  0
VERTEX
  8
LAYER1
 10
16.9722
 20
8.8073
 30
0
 70
     0
  0
VERTEX
  8
LAYER1
 10
16.9028
 20
8.849
 30
0
 70
     0
  0
VERTEX
  8
LAYER1
 10
16.875
 20
8.8767
 30
0
 70
     0
  0
VERTEX
  8
LAYER1
 10
16.8472
 20
8.9045
 30
0
 70
     0
  0
VERTEX
  8
LAYER1
 10
16.8056
 20
8.9601
 30
0
 70
     0
  0
VERTEX
  8
LAYER1
 10
16.7778
 20
9.0295
 30
0
 70
     0
  0
VERTEX
  8
LAYER1
 10
16.7639
 20
9.1128
 30
0
 70
     0
  0
VERTEX
  8
LAYER1
 10
16.7639
 20
9.1545
 30
0
 70
     0
  0
VERTEX
  8
LAYER1
 10
16.7639
 20
9.1962
 30
0
 70
     0
  0
VERTEX
  8
LAYER1
 10
16.7778
 20
9.2656
 30
0
 70
     0
  0
VERTEX
  8
LAYER1
 10
16.8056
 20
9.3351
 30
0
 70
     0
  0
VERTEX
  8
LAYER1
 10
16.8472
 20
9.4045
 30
0
 70
     0
  0
VERTEX
  8
LAYER1
 10
16.875
 20
9.4323
 30
0
 70
     0
  0
VERTEX
  8
LAYER1
 10
16.9028
 20
9.4601
 30
0
 70
     0
  0
VERTEX
  8
LAYER1
 10
16.9722
 20
9.5017
 30
0
 70
     0
  0
VERTEX
  8
LAYER1
 10
17.0417
 20
9.5295
 30
0
 70
     0
  0
VERTEX
  8
LAYER1
 10
17.1111
 20
9.5434
 30
0
 70
     0
  0
VERTEX
  8
LAYER1
 10
17.1528
 20
9.5434
 30
0
 70
     0
  0
VERTEX
  8
LAYER1
 10
17.1944
 20
9.5434
 30
0
 70
     0
  0
VERTEX
  8
LAYER1
 10
17.2639
 20
9.5295
 30
0
 70
     0
  0
VERTEX
  8
LAYER1
 10
17.3333
 20
9.5017
 30
0
 70
     0
  0
VERTEX
  8
LAYER1
 10
17.4028
 20
9.4601
 30
0
 70
     0
  0
VERTEX
  8
LAYER1
 10
17.4306
 20
9.4323
 30
0
 70
     0
  0
VERTEX
  8
LAYER1
 10
17.4583
 20
9.4045
 30
0
 70
     0
  0
VERTEX
  8
LAYER1
 10
17.5
 20
9.3351
 30
0
 70
     0
  0
VERTEX
  8
LAYER1
 10
17.5278
 20
9.2656
 30
0
 70
     0
  0
VERTEX
  8
LAYER1
 10
17.5417
 20
9.1962
 30
0
 70
     0
  0
VERTEX
  8
LAYER1
 10
17.5417
 20
9.1684
 30
0
 70
     0
  0
SEQEND
  0
POLYLINE
  8
LAYER1
  6
CONTINUOUS
 62
     7
 66
     1
 70
     0
 40
0.0039
 41
0.0039
  0
VERTEX
  8
LAYER1
 10
17.375
 20
9.1406
 30
0
 70
     0
  0
VERTEX
  8
LAYER1
 10
17.375
 20
9.1267
 30
0
 70
     0
  0
VERTEX
  8
LAYER1
 10
17.3611
 20
9.0851
 30
0
 70
     0
  0
VERTEX
  8
LAYER1
 10
17.3472
 20
9.0573
 30
0
 70
     0
  0
VERTEX
  8
LAYER1
 10
17.3194
 20
9.0156
 30
0
 70
     0
  0
VERTEX
  8
LAYER1
 10
17.3056
 20
9.0017
 30
0
 70
     0
  0
VERTEX
  8
LAYER1
 10
17.2917
 20
8.9878
 30
0
 70
     0
  0
VERTEX
  8
LAYER1
 10
17.2639
 20
8.9601
 30
0
 70
     0
  0
VERTEX
  8
LAYER1
 10
17.2222
 20
8.9462
 30
0
 70
     0
  0
VERTEX
  8
LAYER1
 10
17.1806
 20
8.9323
 30
0
 70
     0
  0
VERTEX
  8
LAYER1
 10
17.1528
 20
8.9323
 30
0
 70
     0
  0
VERTEX
  8
LAYER1
 10
17.125
 20
8.9323
 30
0
 70
     0
  0
VERTEX
  8
LAYER1
 10
17.0833
 20
8.9462
 30
0
 70
     0
  0
VERTEX
  8
LAYER1
 10
17.0417
 20
8.9601
 30
0
 70
     0
  0
VERTEX
  8
LAYER1
 10
17
 20
8.9878
 30
0
 70
     0
  0
VERTEX
  8
LAYER1
 10
16.9861
 20
9.0017
 30
0
 70
     0
  0
VERTEX
  8
LAYER1
 10
16.9722
 20
9.0156
 30
0
 70
     0
  0
VERTEX
  8
LAYER1
 10
16.9583
 20
9.0434
 30
0
 70
     0
  0
VERTEX
  8
LAYER1
 10
16.9444
 20
9.0851
 30
0
 70
     0
  0
VERTEX
  8
LAYER1
 10
16.9306
 20
9.1267
 30
0
 70
     0
  0
VERTEX
  8
LAYER1
 10
16.9306
 20
9.1545
 30
0
 70
     0
  0
VERTEX
  8
LAYER1
 10
16.9306
 20
9.1823
 30
0
 70
     0
  0
VERTEX
  8
LAYER1
 10
16.9444
 20
9.224
 30
0
 70
     0
  0
VERTEX
  8
LAYER1
 10
16.9583
 20
9.2656
 30
0
 70
     0
  0
VERTEX
  8
LAYER1
 10
16.9722
 20
9.2934
 30
0
 70
     0
  0
VERTEX
  8
LAYER1
 10
16.9861
 20
9.3073
 30
0
 70
     0
  0
VERTEX
  8
LAYER1
 10
17
 20
9.3212
 30
0
 70
     0
  0
VERTEX
  8
LAYER1
 10
17.0417
 20
9.349
 30
0
 70
     0
  0
VERTEX
  8
LAYER1
 10
17.0833
 20
9.3628
 30
0
 70
     0
  0
VERTEX
  8
LAYER1
 10
17.125
 20
9.3767
 30
0
 70
     0
  0
VERTEX
  8
LAYER1
 10
17.1528
 20
9.3767
 30
0
 70
     0
  0
VERTEX
  8
LAYER1
 10
17.1806
 20
9.3767
 30
0
 70
     0
  0
VERTEX
  8
LAYER1
 10
17.2222
 20
9.3628
 30
0
 70
     0
  0
VERTEX
  8
LAYER1
 10
17.2639
 20
9.349
 30
0
 70
     0
  0
VERTEX
  8
LAYER1
 10
17.2917
 20
9.3212
 30
0
 70
     0
  0
VERTEX
  8
LAYER1
 10
17.3056
 20
9.3073
 30
0
 70
     0
  0
VERTEX
  8
LAYER1
 10
17.3194
 20
9.2934
 30
0
 70
     0
  0
VERTEX
  8
LAYER1
 10
17.3472
 20
9.2517
 30
0
 70
     0
  0
VERTEX
  8
LAYER1
 10
17.3611
 20
9.224
 30
0
 70
     0
  0
VERTEX
  8
LAYER1
 10
17.375
 20
9.1823
 30
0
 70
     0
  0
VERTEX
  8
LAYER1
 10
17.375
 20
9.1684
 30
0
 70
     0
  0
SEQEND
  0
LINE
  8
LAYER1
  6
CONTINUOUS
 62
     7
 10
17.375
 20
9.1684
 30
0
 11
17.5417
 21
9.1684
 31
0
  0
ENDBLK
  8
LAYER1
  0
BLOCK
  8
LAYER1
  2
Group4
 70
     0
 10
0
 20
0
 30
0
  0
LINE
  8
LAYER1
  6
CONTINUOUS
 62
     7
 10
17.375
 20
9.1406
 30
0
 11
17.5417
 21
9.1406
 31
0
  0
LINE
  8
LAYER1
  6
CONTINUOUS
 62
     7
 10
17.7778
 20
9.5434
 30
0
 11
17.7778
 21
8.7656
 31
0
  0
LINE
  8
LAYER1
  6
CONTINUOUS
 62
     7
 10
17.6667
 20
8.7656
 30
0
 11
17.6667
 21
9.5434
 31
0
  0
POLYLINE
  8
LAYER1
  6
CONTINUOUS
 62
     7
 66
     1
 70
     0
 40
0.0039
 41
0.0039
  0
VERTEX
  8
LAYER1
 10
17.6111
 20
9.1684
 30
0
 70
     0
  0
VERTEX
  8
LAYER1
 10
17.7222
 20
9.1684
 30
0
 70
     0
  0
VERTEX
  8
LAYER1
 10
17.7778
 20
9.5434
 30
0
 70
     0
  0
VERTEX
  8
LAYER1
 10
17.6667
 20
9.5434
 30
0
 70
     0
  0
VERTEX
  8
LAYER1
 10
17.6111
 20
9.1684
 30
0
 70
     0
  0
SEQEND
  0
POLYLINE
  8
LAYER1
  6
CONTINUOUS
 62
     7
 66
     1
 70
     0
 40
0.0039
 41
0.0039
  0
VERTEX
  8
LAYER1
 10
17.8194
 20
9.1406
 30
0
 70
     0
  0
VERTEX
  8
LAYER1
 10
17.7083
 20
9.1406
 30
0
 70
     0
  0
VERTEX
  8
LAYER1
 10
17.6667
 20
8.7656
 30
0
 70
     0
  0
VERTEX
  8
LAYER1
 10
17.7778
 20
8.7656
 30
0
 70
     0
  0
VERTEX
  8
LAYER1
 10
17.8194
 20
9.1406
 30
0
 70
     0
  0
SEQEND
  0
ENDBLK
  8
LAYER1
  0
BLOCK
  8
LAYER1
  2
Group5
 70
     0
 10
0
 20
0
 30
0
  0
POLYLINE
  8
LAYER1
  6
CONTINUOUS
 62
     7
 66
     1
 70
     0
 40
0.0039
 41
0.0039
  0
VERTEX
  8
LAYER1
 10
19.0972
 20
9.1545
 30
0
 70
     0
  0
VERTEX
  8
LAYER1
 10
19.0972
 20
9.1267
 30
0
 70
     0
  0
VERTEX
  8
LAYER1
 10
19.0972
 20
9.099
 30
0
 70
     0
  0
VERTEX
  8
LAYER1
 10
19.0833
 20
9.0434
 30
0
 70
     0
  0
VERTEX
  8
LAYER1
 10
19.0694
 20
9.0156
 30
0
 70
     0
  0
VERTEX
  8
LAYER1
 10
19.0556
 20
8.974
 30
0
 70
     0
  0
VERTEX
  8
LAYER1
 10
19.0417
 20
8.9462
 30
0
 70
     0
  0
VERTEX
  8
LAYER1
 10
19.0139
 20
8.9045
 30
0
 70
     0
  0
VERTEX
  8
LAYER1
 10
18.9861
 20
8.8767
 30
0
 70
     0
  0
VERTEX
  8
LAYER1
 10
18.9722
 20
8.8628
 30
0
 70
     0
  0
VERTEX
  8
LAYER1
 10
18.9583
 20
8.849
 30
0
 70
     0
  0
VERTEX
  8
LAYER1
 10
18.9306
 20
8.8212
 30
0
 70
     0
  0
VERTEX
  8
LAYER1
 10
18.8889
 20
8.7934
 30
0
 70
     0
  0
VERTEX
  8
LAYER1
 10
18.8611
 20
8.7795
 30
0
 70
     0
  0
VERTEX
  8
LAYER1
 10
18.8194
 20
8.7656
 30
0
 70
     0
  0
VERTEX
  8
LAYER1
 10
18.7778
 20
8.7517
 30
0
 70
     0
  0
VERTEX
  8
LAYER1
 10
18.7222
 20
8.7378
 30
0
 70
     0
  0
VERTEX
  8
LAYER1
 10
18.6944
 20
8.7378
 30
0
 70
     0
  0
VERTEX
  8
LAYER1
 10
18.6667
 20
8.7378
 30
0
 70
     0
  0
VERTEX
  8
LAYER1
 10
18.6389
 20
8.7378
 30
0
 70
     0
  0
VERTEX
  8
LAYER1
 10
18.6111
 20
8.7378
 30
0
 70
     0
  0
VERTEX
  8
LAYER1
 10
18.5556
 20
8.7517
 30
0
 70
     0
  0
VERTEX
  8
LAYER1
 10
18.5139
 20
8.7656
 30
0
 70
     0
  0
VERTEX
  8
LAYER1
 10
18.4722
 20
8.7795
 30
0
 70
     0
  0
VERTEX
  8
LAYER1
 10
18.4444
 20
8.7934
 30
0
 70
     0
  0
VERTEX
  8
LAYER1
 10
18.3889
 20
8.8212
 30
0
 70
     0
  0
VERTEX
  8
LAYER1
 10
18.3611
 20
8.849
 30
0
 70
     0
  0
VERTEX
  8
LAYER1
 10
18.3472
 20
8.8628
 30
0
 70
     0
  0
VERTEX
  8
LAYER1
 10
18.3333
 20
8.8767
 30
0
 70
     0
  0
VERTEX
  8
LAYER1
 10
18.3056
 20
8.9045
 30
0
 70
     0
  0
VERTEX
  8
LAYER1
 10
18.2778
 20
8.9462
 30
0
 70
     0
  0
VERTEX
  8
LAYER1
 10
18.2639
 20
8.974
 30
0
 70
     0
  0
VERTEX
  8
LAYER1
 10
18.25
 20
9.0156
 30
0
 70
     0
  0
VERTEX
  8
LAYER1
 10
18.2361
 20
9.0573
 30
0
 70
     0
  0
VERTEX
  8
LAYER1
 10
18.2222
 20
9.1128
 30
0
 70
     0
  0
VERTEX
  8
LAYER1
 10
18.2222
 20
9.1406
 30
0
 70
     0
  0
VERTEX
  8
LAYER1
 10
18.2222
 20
9.1684
 30
0
 70
     0
  0
VERTEX
  8
LAYER1
 10
18.2222
 20
9.1962
 30
0
 70
     0
  0
VERTEX
  8
LAYER1
 10
18.2222
 20
9.224
 30
0
 70
     0
  0
VERTEX
  8
LAYER1
 10
18.2361
 20
9.2795
 30
0
 70
     0
  0
VERTEX
  8
LAYER1
 10
18.25
 20
9.3212
 30
0
 70
     0
  0
VERTEX
  8
LAYER1
 10
18.2639
 20
9.3628
 30
0
 70
     0
  0
VERTEX
  8
LAYER1
 10
18.2778
 20
9.3906
 30
0
 70
     0
  0
VERTEX
  8
LAYER1
 10
18.3056
 20
9.4323
 30
0
 70
     0
  0
VERTEX
  8
LAYER1
 10
18.3333
 20
9.4601
 30
0
 70
     0
  0
VERTEX
  8
LAYER1
 10
18.3472
 20
9.474
 30
0
 70
     0
  0
VERTEX
  8
LAYER1
 10
18.3611
 20
9.4878
 30
0
 70
     0
  0
VERTEX
  8
LAYER1
 10
18.3889
 20
9.5156
 30
0
 70
     0
  0
VERTEX
  8
LAYER1
 10
18.4306
 20
9.5434
 30
0
 70
     0
  0
VERTEX
  8
LAYER1
 10
18.4861
 20
9.5712
 30
0
 70
     0
  0
VERTEX
  8
LAYER1
 10
18.5139
 20
9.5851
 30
0
 70
     0
  0
VERTEX
  8
LAYER1
 10
18.5556
 20
9.599
 30
0
 70
     0
  0
VERTEX
  8
LAYER1
 10
18.6111
 20
9.6128
 30
0
 70
     0
  0
VERTEX
  8
LAYER1
 10
18.6389
 20
9.6128
 30
0
 70
     0
  0
VERTEX
  8
LAYER1
 10
18.6667
 20
9.6128
 30
0
 70
     0
  0
VERTEX
  8
LAYER1
 10
18.6944
 20
9.6128
 30
0
 70
     0
  0
VERTEX
  8
LAYER1
 10
18.7222
 20
9.6128
 30
0
 70
     0
  0
VERTEX
  8
LAYER1
 10
18.7778
 20
9.599
 30
0
 70
     0
  0
VERTEX
  8
LAYER1
 10
18.8194
 20
9.5851
 30
0
 70
     0
  0
VERTEX
  8
LAYER1
 10
18.8472
 20
9.5712
 30
0
 70
     0
  0
VERTEX
  8
LAYER1
 10
18.8889
 20
9.5434
 30
0
 70
     0
  0
VERTEX
  8
LAYER1
 10
18.9306
 20
9.5156
 30
0
 70
     0
  0
VERTEX
  8
LAYER1
 10
18.9583
 20
9.4878
 30
0
 70
     0
  0
VERTEX
  8
LAYER1
 10
18.9722
 20
9.474
 30
0
 70
     0
  0
VERTEX
  8
LAYER1
 10
18.9861
 20
9.4601
 30
0
 70
     0
  0
VERTEX
  8
LAYER1
 10
19.0139
 20
9.4323
 30
0
 70
     0
  0
VERTEX
  8
LAYER1
 10
19.0417
 20
9.3906
 30
0
 70
     0
  0
VERTEX
  8
LAYER1
 10
19.0556
 20
9.3628
 30
0
 70
     0
  0
VERTEX
  8
LAYER1
 10
19.0694
 20
9.3212
 30
0
 70
     0
  0
VERTEX
  8
LAYER1
 10
19.0833
 20
9.2934
 30
0
 70
     0
  0
VERTEX
  8
LAYER1
 10
19.0972
 20
9.2378
 30
0
 70
     0
  0
VERTEX
  8
LAYER1
 10
19.0972
 20
9.1962
 30
0
 70
     0
  0
VERTEX
  8
LAYER1
 10
19.0972
 20
9.1823
 30
0
 70
     0
  0
SEQEND
  0
POLYLINE
  8
LAYER1
  6
CONTINUOUS
 62
     7
 66
     1
 70
     0
 40
0.0039
 41
0.0039
  0
VERTEX
  8
LAYER1
 10
18.9167
 20
9.1545
 30
0
 70
     0
  0
VERTEX
  8
LAYER1
 10
18.9167
 20
9.1267
 30
0
 70
     0
  0
VERTEX
  8
LAYER1
 10
18.9028
 20
9.0851
 30
0
 70
     0
  0
VERTEX
  8
LAYER1
 10
18.8889
 20
9.0434
 30
0
 70
     0
  0
VERTEX
  8
LAYER1
 10
18.8611
 20
9.0017
 30
0
 70
     0
  0
VERTEX
  8
LAYER1
 10
18.8472
 20
8.9878
 30
0
 70
     0
  0
VERTEX
  8
LAYER1
 10
18.8333
 20
8.974
 30
0
 70
     0
  0
VERTEX
  8
LAYER1
 10
18.7917
 20
8.9462
 30
0
 70
     0
  0
VERTEX
  8
LAYER1
 10
18.75
 20
8.9323
 30
0
 70
     0
  0
VERTEX
  8
LAYER1
 10
18.6944
 20
8.9184
 30
0
 70
     0
  0
VERTEX
  8
LAYER1
 10
18.6667
 20
8.9184
 30
0
 70
     0
  0
VERTEX
  8
LAYER1
 10
18.6389
 20
8.9184
 30
0
 70
     0
  0
VERTEX
  8
LAYER1
 10
18.5833
 20
8.9323
 30
0
 70
     0
  0
VERTEX
  8
LAYER1
 10
18.5417
 20
8.9462
 30
0
 70
     0
  0
VERTEX
  8
LAYER1
 10
18.5
 20
8.974
 30
0
 70
     0
  0
VERTEX
  8
LAYER1
 10
18.4861
 20
8.9878
 30
0
 70
     0
  0
VERTEX
  8
LAYER1
 10
18.4722
 20
9.0017
 30
0
 70
     0
  0
VERTEX
  8
LAYER1
 10
18.4306
 20
9.0573
 30
0
 70
     0
  0
VERTEX
  8
LAYER1
 10
18.4167
 20
9.0851
 30
0
 70
     0
  0
VERTEX
  8
LAYER1
 10
18.4028
 20
9.1406
 30
0
 70
     0
  0
VERTEX
  8
LAYER1
 10
18.4028
 20
9.1684
 30
0
 70
     0
  0
VERTEX
  8
LAYER1
 10
18.4028
 20
9.1962
 30
0
 70
     0
  0
VERTEX
  8
LAYER1
 10
18.4167
 20
9.2517
 30
0
 70
     0
  0
VERTEX
  8
LAYER1
 10
18.4306
 20
9.2795
 30
0
 70
     0
  0
VERTEX
  8
LAYER1
 10
18.4722
 20
9.3351
 30
0
 70
     0
  0
VERTEX
  8
LAYER1
 10
18.4861
 20
9.349
 30
0
 70
     0
  0
VERTEX
  8
LAYER1
 10
18.5
 20
9.3628
 30
0
 70
     0
  0
VERTEX
  8
LAYER1
 10
18.5417
 20
9.3906
 30
0
 70
     0
  0
VERTEX
  8
LAYER1
 10
18.5833
 20
9.4045
 30
0
 70
     0
  0
VERTEX
  8
LAYER1
 10
18.6389
 20
9.4184
 30
0
 70
     0
  0
VERTEX
  8
LAYER1
 10
18.6667
 20
9.4184
 30
0
 70
     0
  0
VERTEX
  8
LAYER1
 10
18.6944
 20
9.4184
 30
0
 70
     0
  0
VERTEX
  8
LAYER1
 10
18.75
 20
9.4045
 30
0
 70
     0
  0
VERTEX
  8
LAYER1
 10
18.7917
 20
9.3906
 30
0
 70
     0
  0
VERTEX
  8
LAYER1
 10
18.8333
 20
9.3628
 30
0
 70
     0
  0
VERTEX
  8
LAYER1
 10
18.8472
 20
9.349
 30
0
 70
     0
  0
VERTEX
  8
LAYER1
 10
18.8611
 20
9.3351
 30
0
 70
     0
  0
VERTEX
  8
LAYER1
 10
18.8889
 20
9.2934
 30
0
 70
     0
  0
VERTEX
  8
LAYER1
 10
18.9028
 20
9.2517
 30
0
 70
     0
  0
VERTEX
  8
LAYER1
 10
18.9167
 20
9.2101
 30
0
 70
     0
  0
VERTEX
  8
LAYER1
 10
18.9167
 20
9.1823
 30
0
 70
     0
  0
SEQEND
  0
LINE
  8
LAYER1
  6
CONTINUOUS
 62
     7
 10
18.9167
 20
9.1823
 30
0
 11
19.0972
 21
9.1823
 31
0
  0
ENDBLK
  8
LAYER1
  0
BLOCK
  8
LAYER1
  2
Group6
 70
     0
 10
0
 20
0
 30
0
  0
LINE
  8
LAYER1
  6
CONTINUOUS
 62
     7
 10
18.9167
 20
9.1545
 30
0
 11
19.0972
 21
9.1545
 31
0
  0
LINE
  8
LAYER1
  6
CONTINUOUS
 62
     7
 10
19.3611
 20
8.7101
 30
0
 11
19.3611
 21
9.5851
 31
0
  0
LINE
  8
LAYER1
  6
CONTINUOUS
 62
     7
 10
19.2361
 20
9.5851
 30
0
 11
19.2361
 21
8.7101
 31
0
  0
POLYLINE
  8
LAYER1
  6
CONTINUOUS
 62
     7
 66
     1
 70
     0
 40
0.0039
 41
0.0039
  0
VERTEX
  8
LAYER1
 10
19.1806
 20
9.1545
 30
0
 70
     0
  0
VERTEX
  8
LAYER1
 10
19.3056
 20
9.1545
 30
0
 70
     0
  0
VERTEX
  8
LAYER1
 10
19.3611
 20
9.5851
 30
0
 70
     0
  0
VERTEX
  8
LAYER1
 10
19.2361
 20
9.5851
 30
0
 70
     0
  0
VERTEX
  8
LAYER1
 10
19.1806
 20
9.1545
 30
0
 70
     0
  0
SEQEND
  0
POLYLINE
  8
LAYER1
  6
CONTINUOUS
 62
     7
 66
     1
 70
     0
 40
0.0039
 41
0.0039
  0
VERTEX
  8
LAYER1
 10
19.4028
 20
9.1406
 30
0
 70
     0
  0
VERTEX
  8
LAYER1
 10
19.2778
 20
9.1406
 30
0
 70
     0
  0
VERTEX
  8
LAYER1
 10
19.2361
 20
8.7101
 30
0
 70
     0
  0
VERTEX
  8
LAYER1
 10
19.3611
 20
8.7101
 30
0
 70
     0
  0
VERTEX
  8
LAYER1
 10
19.4028
 20
9.1406
 30
0
 70
     0
  0
SEQEND
  0
ENDBLK
  8
LAYER1
  0
BLOCK
  8
LAYER1
  2
Group7
 70
     0
 10
0
 20
0
 30
0
  0
POLYLINE
  8
LAYER1
  6
CONTINUOUS
 62
     7
 66
     1
 70
     0
 40
0.0039
 41
0.0039
  0
VERTEX
  8
LAYER1
 10
15.7083
 20
5.8073
 30
0
 70
     0
  0
VERTEX
  8
LAYER1
 10
15.7083
 20
5.7656
 30
0
 70
     0
  0
VERTEX
  8
LAYER1
 10
15.6806
 20
5.6684
 30
0
 70
     0
  0
VERTEX
  8
LAYER1
 10
15.6528
 20
5.6128
 30
0
 70
     0
  0
VERTEX
  8
LAYER1
 10
15.5972
 20
5.5295
 30
0
 70
     0
  0
VERTEX
  8
LAYER1
 10
15.5694
 20
5.5017
 30
0
 70
     0
  0
VERTEX
  8
LAYER1
 10
15.5556
 20
5.4878
 30
0
 70
     0
  0
VERTEX
  8
LAYER1
 10
15.5278
 20
5.4601
 30
0
 70
     0
  0
VERTEX
  8
LAYER1
 10
15.4861
 20
5.4323
 30
0
 70
     0
  0
VERTEX
  8
LAYER1
 10
15.4306
 20
5.4045
 30
0
 70
     0
  0
VERTEX
  8
LAYER1
 10
15.4028
 20
5.3906
 30
0
 70
     0
  0
VERTEX
  8
LAYER1
 10
15.3472
 20
5.3767
 30
0
 70
     0
  0
VERTEX
  8
LAYER1
 10
15.2917
 20
5.3628
 30
0
 70
     0
  0
VERTEX
  8
LAYER1
 10
15.25
 20
5.3628
 30
0
 70
     0
  0
VERTEX
  8
LAYER1
 10
15.2222
 20
5.3628
 30
0
 70
     0
  0
VERTEX
  8
LAYER1
 10
15.1944
 20
5.3628
 30
0
 70
     0
  0
VERTEX
  8
LAYER1
 10
15.1528
 20
5.3628
 30
0
 70
     0
  0
VERTEX
  8
LAYER1
 10
15.0972
 20
5.3767
 30
0
 70
     0
  0
VERTEX
  8
LAYER1
 10
15.0556
 20
5.3906
 30
0
 70
     0
  0
VERTEX
  8
LAYER1
 10
15.0278
 20
5.4045
 30
0
 70
     0
  0
VERTEX
  8
LAYER1
 10
14.9722
 20
5.4323
 30
0
 70
     0
  0
VERTEX
  8
LAYER1
 10
14.9306
 20
5.4601
 30
0
 70
     0
  0
VERTEX
  8
LAYER1
 10
14.8889
 20
5.4878
 30
0
 70
     0
  0
VERTEX
  8
LAYER1
 10
14.875
 20
5.5017
 30
0
 70
     0
  0
VERTEX
  8
LAYER1
 10
14.8611
 20
5.5156
 30
0
 70
     0
  0
VERTEX
  8
LAYER1
 10
14.8333
 20
5.5434
 30
0
 70
     0
  0
VERTEX
  8
LAYER1
 10
14.8056
 20
5.5851
 30
0
 70
     0
  0
VERTEX
  8
LAYER1
 10
14.7778
 20
5.6406
 30
0
 70
     0
  0
VERTEX
  8
LAYER1
 10
14.7639
 20
5.6684
 30
0
 70
     0
  0
VERTEX
  8
LAYER1
 10
14.75
 20
5.7101
 30
0
 70
     0
  0
VERTEX
  8
LAYER1
 10
14.7361
 20
5.7656
 30
0
 70
     0
  0
VERTEX
  8
LAYER1
 10
14.7361
 20
5.8073
 30
0
 70
     0
  0
VERTEX
  8
LAYER1
 10
14.7361
 20
5.8351
 30
0
 70
     0
  0
VERTEX
  8
LAYER1
 10
14.7361
 20
5.8628
 30
0
 70
     0
  0
VERTEX
  8
LAYER1
 10
14.7361
 20
5.9045
 30
0
 70
     0
  0
VERTEX
  8
LAYER1
 10
14.75
 20
5.9601
 30
0
 70
     0
  0
VERTEX
  8
LAYER1
 10
14.7639
 20
6.0156
 30
0
 70
     0
  0
VERTEX
  8
LAYER1
 10
14.7778
 20
6.0434
 30
0
 70
     0
  0
VERTEX
  8
LAYER1
 10
14.8056
 20
6.099
 30
0
 70
     0
  0
VERTEX
  8
LAYER1
 10
14.8333
 20
6.1406
 30
0
 70
     0
  0
VERTEX
  8
LAYER1
 10
14.8611
 20
6.1684
 30
0
 70
     0
  0
VERTEX
  8
LAYER1
 10
14.875
 20
6.1823
 30
0
 70
     0
  0
VERTEX
  8
LAYER1
 10
14.8889
 20
6.1962
 30
0
 70
     0
  0
VERTEX
  8
LAYER1
 10
14.9306
 20
6.224
 30
0
 70
     0
  0
VERTEX
  8
LAYER1
 10
14.9722
 20
6.2517
 30
0
 70
     0
  0
VERTEX
  8
LAYER1
 10
15.0278
 20
6.2795
 30
0
 70
     0
  0
VERTEX
  8
LAYER1
 10
15.0556
 20
6.2934
 30
0
 70
     0
  0
VERTEX
  8
LAYER1
 10
15.0972
 20
6.3073
 30
0
 70
     0
  0
VERTEX
  8
LAYER1
 10
15.1528
 20
6.3212
 30
0
 70
     0
  0
VERTEX
  8
LAYER1
 10
15.1944
 20
6.3212
 30
0
 70
     0
  0
VERTEX
  8
LAYER1
 10
15.2222
 20
6.3212
 30
0
 70
     0
  0
VERTEX
  8
LAYER1
 10
15.25
 20
6.3212
 30
0
 70
     0
  0
VERTEX
  8
LAYER1
 10
15.2917
 20
6.3212
 30
0
 70
     0
  0
VERTEX
  8
LAYER1
 10
15.3472
 20
6.3073
 30
0
 70
     0
  0
VERTEX
  8
LAYER1
 10
15.4028
 20
6.2934
 30
0
 70
     0
  0
VERTEX
  8
LAYER1
 10
15.4306
 20
6.2795
 30
0
 70
     0
  0
VERTEX
  8
LAYER1
 10
15.4861
 20
6.2517
 30
0
 70
     0
  0
VERTEX
  8
LAYER1
 10
15.5278
 20
6.224
 30
0
 70
     0
  0
VERTEX
  8
LAYER1
 10
15.5556
 20
6.1962
 30
0
 70
     0
  0
VERTEX
  8
LAYER1
 10
15.5694
 20
6.1823
 30
0
 70
     0
  0
VERTEX
  8
LAYER1
 10
15.5972
 20
6.1545
 30
0
 70
     0
  0
VERTEX
  8
LAYER1
 10
15.6528
 20
6.0712
 30
0
 70
     0
  0
VERTEX
  8
LAYER1
 10
15.6806
 20
6.0156
 30
0
 70
     0
  0
VERTEX
  8
LAYER1
 10
15.7083
 20
5.9184
 30
0
 70
     0
  0
VERTEX
  8
LAYER1
 10
15.7083
 20
5.8767
 30
0
 70
     0
  0
SEQEND
  0
POLYLINE
  8
LAYER1
  6
CONTINUOUS
 62
     7
 66
     1
 70
     0
 40
0.0039
 41
0.0039
  0
VERTEX
  8
LAYER1
 10
15.5139
 20
5.8073
 30
0
 70
     0
  0
VERTEX
  8
LAYER1
 10
15.5139
 20
5.7934
 30
0
 70
     0
  0
VERTEX
  8
LAYER1
 10
15.5
 20
5.7378
 30
0
 70
     0
  0
VERTEX
  8
LAYER1
 10
15.4722
 20
5.6962
 30
0
 70
     0
  0
VERTEX
  8
LAYER1
 10
15.4444
 20
5.6545
 30
0
 70
     0
  0
VERTEX
  8
LAYER1
 10
15.4306
 20
5.6406
 30
0
 70
     0
  0
VERTEX
  8
LAYER1
 10
15.4028
 20
5.6128
 30
0
 70
     0
  0
VERTEX
  8
LAYER1
 10
15.3611
 20
5.5851
 30
0
 70
     0
  0
VERTEX
  8
LAYER1
 10
15.3194
 20
5.5712
 30
0
 70
     0
  0
VERTEX
  8
LAYER1
 10
15.25
 20
5.5573
 30
0
 70
     0
  0
VERTEX
  8
LAYER1
 10
15.2222
 20
5.5573
 30
0
 70
     0
  0
VERTEX
  8
LAYER1
 10
15.1944
 20
5.5573
 30
0
 70
     0
  0
VERTEX
  8
LAYER1
 10
15.1389
 20
5.5712
 30
0
 70
     0
  0
VERTEX
  8
LAYER1
 10
15.0972
 20
5.5851
 30
0
 70
     0
  0
VERTEX
  8
LAYER1
 10
15.0556
 20
5.6128
 30
0
 70
     0
  0
VERTEX
  8
LAYER1
 10
15.0278
 20
5.6406
 30
0
 70
     0
  0
VERTEX
  8
LAYER1
 10
15.0139
 20
5.6545
 30
0
 70
     0
  0
VERTEX
  8
LAYER1
 10
14.9722
 20
5.7101
 30
0
 70
     0
  0
VERTEX
  8
LAYER1
 10
14.9583
 20
5.7517
 30
0
 70
     0
  0
VERTEX
  8
LAYER1
 10
14.9444
 20
5.8073
 30
0
 70
     0
  0
VERTEX
  8
LAYER1
 10
14.9444
 20
5.8351
 30
0
 70
     0
  0
VERTEX
  8
LAYER1
 10
14.9444
 20
5.8628
 30
0
 70
     0
  0
VERTEX
  8
LAYER1
 10
14.9583
 20
5.9323
 30
0
 70
     0
  0
VERTEX
  8
LAYER1
 10
14.9722
 20
5.974
 30
0
 70
     0
  0
VERTEX
  8
LAYER1
 10
15.0139
 20
6.0295
 30
0
 70
     0
  0
VERTEX
  8
LAYER1
 10
15.0278
 20
6.0434
 30
0
 70
     0
  0
VERTEX
  8
LAYER1
 10
15.0417
 20
6.0573
 30
0
 70
     0
  0
VERTEX
  8
LAYER1
 10
15.0972
 20
6.099
 30
0
 70
     0
  0
VERTEX
  8
LAYER1
 10
15.1389
 20
6.1128
 30
0
 70
     0
  0
VERTEX
  8
LAYER1
 10
15.1944
 20
6.1267
 30
0
 70
     0
  0
VERTEX
  8
LAYER1
 10
15.2222
 20
6.1267
 30
0
 70
     0
  0
VERTEX
  8
LAYER1
 10
15.25
 20
6.1267
 30
0
 70
     0
  0
VERTEX
  8
LAYER1
 10
15.3194
 20
6.1128
 30
0
 70
     0
  0
VERTEX
  8
LAYER1
 10
15.3611
 20
6.099
 30
0
 70
     0
  0
VERTEX
  8
LAYER1
 10
15.4167
 20
6.0573
 30
0
 70
     0
  0
VERTEX
  8
LAYER1
 10
15.4306
 20
6.0434
 30
0
 70
     0
  0
VERTEX
  8
LAYER1
 10
15.4444
 20
6.0295
 30
0
 70
     0
  0
VERTEX
  8
LAYER1
 10
15.4722
 20
5.9878
 30
0
 70
     0
  0
VERTEX
  8
LAYER1
 10
15.5
 20
5.9462
 30
0
 70
     0
  0
VERTEX
  8
LAYER1
 10
15.5139
 20
5.8906
 30
0
 70
     0
  0
VERTEX
  8
LAYER1
 10
15.5139
 20
5.8767
 30
0
 70
     0
  0
SEQEND
  0
LINE
  8
LAYER1
  6
CONTINUOUS
 62
     7
 10
15.5139
 20
5.8767
 30
0
 11
15.7083
 21
5.8767
 31
0
  0
ENDBLK
  8
LAYER1
  0
BLOCK
  8
LAYER1
  2
Group8
 70
     0
 10
0
 20
0
 30
0
  0
LINE
  8
LAYER1
  6
CONTINUOUS
 62
     7
 10
15.5139
 20
5.8073
 30
0
 11
15.7083
 21
5.8073
 31
0
  0
LINE
  8
LAYER1
  6
CONTINUOUS
 62
     7
 10
15.9722
 20
6.3212
 30
0
 11
15.9722
 21
5.3628
 31
0
  0
LINE
  8
LAYER1
  6
CONTINUOUS
 62
     7
 10
15.8194
 20
5.3628
 30
0
 11
15.8194
 21
6.3212
 31
0
  0
POLYLINE
  8
LAYER1
  6
CONTINUOUS
 62
     7
 66
     1
 70
     0
 40
0.0039
 41
0.0039
  0
VERTEX
  8
LAYER1
 10
15.7639
 20
5.8767
 30
0
 70
     0
  0
VERTEX
  8
LAYER1
 10
15.9028
 20
5.8767
 30
0
 70
     0
  0
VERTEX
  8
LAYER1
 10
15.9722
 20
6.3212
 30
0
 70
     0
  0
VERTEX
  8
LAYER1
 10
15.8194
 20
6.3212
 30
0
 70
     0
  0
VERTEX
  8
LAYER1
 10
15.7639
 20
5.8767
 30
0
 70
     0
  0
SEQEND
  0
POLYLINE
  8
LAYER1
  6
CONTINUOUS
 62
     7
 66
     1
 70
     0
 40
0.0039
 41
0.0039
  0
VERTEX
  8
LAYER1
 10
16.0278
 20
5.8073
 30
0
 70
     0
  0
VERTEX
  8
LAYER1
 10
15.875
 20
5.8073
 30
0
 70
     0
  0
VERTEX
  8
LAYER1
 10
15.8194
 20
5.3628
 30
0
 70
     0
  0
VERTEX
  8
LAYER1
 10
15.9722
 20
5.3628
 30
0
 70
     0
  0
VERTEX
  8
LAYER1
 10
16.0278
 20
5.8073
 30
0
 70
     0
  0
SEQEND
  0
ENDBLK
  8
LAYER1
  0
BLOCK
  8
LAYER1
  2
Group9
 70
     0
 10
0
 20
0
 30
0
  0
POLYLINE
  8
LAYER1
  6
CONTINUOUS
 62
     7
 66
     1
 70
     0
 40
0.0039
 41
0.0039
  0
VERTEX
  8
LAYER1
 10
17.625
 20
5.8906
 30
0
 70
     0
  0
VERTEX
  8
LAYER1
 10
17.625
 20
5.8628
 30
0
 70
     0
  0
VERTEX
  8
LAYER1
 10
17.625
 20
5.8212
 30
0
 70
     0
  0
VERTEX
  8
LAYER1
 10
17.6111
 20
5.7795
 30
0
 70
     0
  0
VERTEX
  8
LAYER1
 10
17.5972
 20
5.724
 30
0
 70
     0
  0
VERTEX
  8
LAYER1
 10
17.5833
 20
5.6823
 30
0
 70
     0
  0
VERTEX
  8
LAYER1
 10
17.5556
 20
5.6406
 30
0
 70
     0
  0
VERTEX
  8
LAYER1
 10
17.5278
 20
5.599
 30
0
 70
     0
  0
VERTEX
  8
LAYER1
 10
17.4861
 20
5.5573
 30
0
 70
     0
  0
VERTEX
  8
LAYER1
 10
17.4722
 20
5.5434
 30
0
 70
     0
  0
VERTEX
  8
LAYER1
 10
17.4583
 20
5.5295
 30
0
 70
     0
  0
VERTEX
  8
LAYER1
 10
17.4167
 20
5.4878
 30
0
 70
     0
  0
VERTEX
  8
LAYER1
 10
17.375
 20
5.4601
 30
0
 70
     0
  0
VERTEX
  8
LAYER1
 10
17.3333
 20
5.4323
 30
0
 70
     0
  0
VERTEX
  8
LAYER1
 10
17.2778
 20
5.4045
 30
0
 70
     0
  0
VERTEX
  8
LAYER1
 10
17.2222
 20
5.3906
 30
0
 70
     0
  0
VERTEX
  8
LAYER1
 10
17.1667
 20
5.3767
 30
0
 70
     0
  0
VERTEX
  8
LAYER1
 10
17.125
 20
5.3767
 30
0
 70
     0
  0
VERTEX
  8
LAYER1
 10
17.0972
 20
5.3767
 30
0
 70
     0
  0
VERTEX
  8
LAYER1
 10
17.0694
 20
5.3767
 30
0
 70
     0
  0
VERTEX
  8
LAYER1
 10
17.0278
 20
5.3767
 30
0
 70
     0
  0
VERTEX
  8
LAYER1
 10
16.9722
 20
5.3906
 30
0
 70
     0
  0
VERTEX
  8
LAYER1
 10
16.9167
 20
5.4045
 30
0
 70
     0
  0
VERTEX
  8
LAYER1
 10
16.8611
 20
5.4323
 30
0
 70
     0
  0
VERTEX
  8
LAYER1
 10
16.8056
 20
5.4601
 30
0
 70
     0
  0
VERTEX
  8
LAYER1
 10
16.7639
 20
5.4878
 30
0
 70
     0
  0
VERTEX
  8
LAYER1
 10
16.7361
 20
5.5156
 30
0
 70
     0
  0
VERTEX
  8
LAYER1
 10
16.7083
 20
5.5434
 30
0
 70
     0
  0
VERTEX
  8
LAYER1
 10
16.6944
 20
5.5573
 30
0
 70
     0
  0
VERTEX
  8
LAYER1
 10
16.6528
 20
5.6128
 30
0
 70
     0
  0
VERTEX
  8
LAYER1
 10
16.625
 20
5.6545
 30
0
 70
     0
  0
VERTEX
  8
LAYER1
 10
16.5972
 20
5.6962
 30
0
 70
     0
  0
VERTEX
  8
LAYER1
 10
16.5833
 20
5.7378
 30
0
 70
     0
  0
VERTEX
  8
LAYER1
 10
16.5694
 20
5.7934
 30
0
 70
     0
  0
VERTEX
  8
LAYER1
 10
16.5556
 20
5.849
 30
0
 70
     0
  0
VERTEX
  8
LAYER1
 10
16.5556
 20
5.8906
 30
0
 70
     0
  0
VERTEX
  8
LAYER1
 10
16.5556
 20
5.9184
 30
0
 70
     0
  0
VERTEX
  8
LAYER1
 10
16.5556
 20
5.9462
 30
0
 70
     0
  0
VERTEX
  8
LAYER1
 10
16.5556
 20
5.9878
 30
0
 70
     0
  0
VERTEX
  8
LAYER1
 10
16.5694
 20
6.0434
 30
0
 70
     0
  0
VERTEX
  8
LAYER1
 10
16.5833
 20
6.099
 30
0
 70
     0
  0
VERTEX
  8
LAYER1
 10
16.5972
 20
6.1406
 30
0
 70
     0
  0
VERTEX
  8
LAYER1
 10
16.625
 20
6.1823
 30
0
 70
     0
  0
VERTEX
  8
LAYER1
 10
16.6528
 20
6.224
 30
0
 70
     0
  0
VERTEX
  8
LAYER1
 10
16.6944
 20
6.2795
 30
0
 70
     0
  0
VERTEX
  8
LAYER1
 10
16.7083
 20
6.2934
 30
0
 70
     0
  0
VERTEX
  8
LAYER1
 10
16.7222
 20
6.3073
 30
0
 70
     0
  0
VERTEX
  8
LAYER1
 10
16.7639
 20
6.349
 30
0
 70
     0
  0
VERTEX
  8
LAYER1
 10
16.8056
 20
6.3767
 30
0
 70
     0
  0
VERTEX
  8
LAYER1
 10
16.8611
 20
6.4045
 30
0
 70
     0
  0
VERTEX
  8
LAYER1
 10
16.9167
 20
6.4323
 30
0
 70
     0
  0
VERTEX
  8
LAYER1
 10
16.9722
 20
6.4462
 30
0
 70
     0
  0
VERTEX
  8
LAYER1
 10
17.0278
 20
6.4601
 30
0
 70
     0
  0
VERTEX
  8
LAYER1
 10
17.0694
 20
6.4601
 30
0
 70
     0
  0
VERTEX
  8
LAYER1
 10
17.0972
 20
6.4601
 30
0
 70
     0
  0
VERTEX
  8
LAYER1
 10
17.125
 20
6.4601
 30
0
 70
     0
  0
VERTEX
  8
LAYER1
 10
17.1667
 20
6.4601
 30
0
 70
     0
  0
VERTEX
  8
LAYER1
 10
17.2222
 20
6.4462
 30
0
 70
     0
  0
VERTEX
  8
LAYER1
 10
17.2778
 20
6.4323
 30
0
 70
     0
  0
VERTEX
  8
LAYER1
 10
17.3333
 20
6.4045
 30
0
 70
     0
  0
VERTEX
  8
LAYER1
 10
17.375
 20
6.3767
 30
0
 70
     0
  0
VERTEX
  8
LAYER1
 10
17.4167
 20
6.349
 30
0
 70
     0
  0
VERTEX
  8
LAYER1
 10
17.4583
 20
6.3073
 30
0
 70
     0
  0
VERTEX
  8
LAYER1
 10
17.4722
 20
6.2934
 30
0
 70
     0
  0
VERTEX
  8
LAYER1
 10
17.4861
 20
6.2795
 30
0
 70
     0
  0
VERTEX
  8
LAYER1
 10
17.5278
 20
6.2378
 30
0
 70
     0
  0
VERTEX
  8
LAYER1
 10
17.5556
 20
6.1962
 30
0
 70
     0
  0
VERTEX
  8
LAYER1
 10
17.5833
 20
6.1545
 30
0
 70
     0
  0
VERTEX
  8
LAYER1
 10
17.5972
 20
6.1128
 30
0
 70
     0
  0
VERTEX
  8
LAYER1
 10
17.6111
 20
6.0573
 30
0
 70
     0
  0
VERTEX
  8
LAYER1
 10
17.625
 20
6.0156
 30
0
 70
     0
  0
VERTEX
  8
LAYER1
 10
17.625
 20
5.974
 30
0
 70
     0
  0
VERTEX
  8
LAYER1
 10
17.625
 20
5.9462
 30
0
 70
     0
  0
SEQEND
  0
POLYLINE
  8
LAYER1
  6
CONTINUOUS
 62
     7
 66
     1
 70
     0
 40
0.0039
 41
0.0039
  0
VERTEX
  8
LAYER1
 10
17.4028
 20
5.8906
 30
0
 70
     0
  0
VERTEX
  8
LAYER1
 10
17.4028
 20
5.8628
 30
0
 70
     0
  0
VERTEX
  8
LAYER1
 10
17.3889
 20
5.8073
 30
0
 70
     0
  0
VERTEX
  8
LAYER1
 10
17.375
 20
5.7656
 30
0
 70
     0
  0
VERTEX
  8
LAYER1
 10
17.3472
 20
5.724
 30
0
 70
     0
  0
VERTEX
  8
LAYER1
 10
17.3194
 20
5.6962
 30
0
 70
     0
  0
VERTEX
  8
LAYER1
 10
17.2917
 20
5.6684
 30
0
 70
     0
  0
VERTEX
  8
LAYER1
 10
17.25
 20
5.6406
 30
0
 70
     0
  0
VERTEX
  8
LAYER1
 10
17.1944
 20
5.6128
 30
0
 70
     0
  0
VERTEX
  8
LAYER1
 10
17.125
 20
5.599
 30
0
 70
     0
  0
VERTEX
  8
LAYER1
 10
17.0972
 20
5.599
 30
0
 70
     0
  0
VERTEX
  8
LAYER1
 10
17.0694
 20
5.599
 30
0
 70
     0
  0
VERTEX
  8
LAYER1
 10
16.9861
 20
5.6128
 30
0
 70
     0
  0
VERTEX
  8
LAYER1
 10
16.9306
 20
5.6406
 30
0
 70
     0
  0
VERTEX
  8
LAYER1
 10
16.8889
 20
5.6684
 30
0
 70
     0
  0
VERTEX
  8
LAYER1
 10
16.8611
 20
5.6962
 30
0
 70
     0
  0
VERTEX
  8
LAYER1
 10
16.8472
 20
5.7101
 30
0
 70
     0
  0
VERTEX
  8
LAYER1
 10
16.8056
 20
5.7795
 30
0
 70
     0
  0
VERTEX
  8
LAYER1
 10
16.7917
 20
5.8212
 30
0
 70
     0
  0
VERTEX
  8
LAYER1
 10
16.7778
 20
5.8906
 30
0
 70
     0
  0
VERTEX
  8
LAYER1
 10
16.7778
 20
5.9184
 30
0
 70
     0
  0
VERTEX
  8
LAYER1
 10
16.7778
 20
5.9462
 30
0
 70
     0
  0
VERTEX
  8
LAYER1
 10
16.7917
 20
6.0156
 30
0
 70
     0
  0
VERTEX
  8
LAYER1
 10
16.8056
 20
6.0573
 30
0
 70
     0
  0
VERTEX
  8
LAYER1
 10
16.8472
 20
6.1267
 30
0
 70
     0
  0
VERTEX
  8
LAYER1
 10
16.8611
 20
6.1406
 30
0
 70
     0
  0
VERTEX
  8
LAYER1
 10
16.8889
 20
6.1684
 30
0
 70
     0
  0
VERTEX
  8
LAYER1
 10
16.9306
 20
6.1962
 30
0
 70
     0
  0
VERTEX
  8
LAYER1
 10
16.9861
 20
6.224
 30
0
 70
     0
  0
VERTEX
  8
LAYER1
 10
17.0694
 20
6.2378
 30
0
 70
     0
  0
VERTEX
  8
LAYER1
 10
17.0972
 20
6.2378
 30
0
 70
     0
  0
VERTEX
  8
LAYER1
 10
17.125
 20
6.2378
 30
0
 70
     0
  0
VERTEX
  8
LAYER1
 10
17.1944
 20
6.224
 30
0
 70
     0
  0
VERTEX
  8
LAYER1
 10
17.25
 20
6.1962
 30
0
 70
     0
  0
VERTEX
  8
LAYER1
 10
17.2917
 20
6.1684
 30
0
 70
     0
  0
VERTEX
  8
LAYER1
 10
17.3194
 20
6.1406
 30
0
 70
     0
  0
VERTEX
  8
LAYER1
 10
17.3472
 20
6.1128
 30
0
 70
     0
  0
VERTEX
  8
LAYER1
 10
17.375
 20
6.0712
 30
0
 70
     0
  0
VERTEX
  8
LAYER1
 10
17.3889
 20
6.0295
 30
0
 70
     0
  0
VERTEX
  8
LAYER1
 10
17.4028
 20
5.974
 30
0
 70
     0
  0
VERTEX
  8
LAYER1
 10
17.4028
 20
5.9462
 30
0
 70
     0
  0
SEQEND
  0
LINE
  8
LAYER1
  6
CONTINUOUS
 62
     7
 10
17.4028
 20
5.9462
 30
0
 11
17.625
 21
5.9462
 31
0
  0
ENDBLK
  8
LAYER1
  0
BLOCK
  8
LAYER1
  2
Group10
 70
     0
 10
0
 20
0
 30
0
  0
LINE
  8
LAYER1
  6
CONTINUOUS
 62
     7
 10
17.4028
 20
5.8906
 30
0
 11
17.625
 21
5.8906
 31
0
  0
LINE
  8
LAYER1
  6
CONTINUOUS
 62
     7
 10
17.9444
 20
6.4323
 30
0
 11
17.9444
 21
5.349
 31
0
  0
LINE
  8
LAYER1
  6
CONTINUOUS
 62
     7
 10
17.7917
 20
5.349
 30
0
 11
17.7917
 21
6.4323
 31
0
  0
POLYLINE
  8
LAYER1
  6
CONTINUOUS
 62
     7
 66
     1
 70
     0
 40
0.0039
 41
0.0039
  0
VERTEX
  8
LAYER1
 10
17.7361
 20
5.9462
 30
0
 70
     0
  0
VERTEX
  8
LAYER1
 10
17.8889
 20
5.9462
 30
0
 70
     0
  0
VERTEX
  8
LAYER1
 10
17.9444
 20
6.4323
 30
0
 70
     0
  0
VERTEX
  8
LAYER1
 10
17.7917
 20
6.4323
 30
0
 70
     0
  0
VERTEX
  8
LAYER1
 10
17.7361
 20
5.9462
 30
0
 70
     0
  0
SEQEND
  0
POLYLINE
  8
LAYER1
  6
CONTINUOUS
 62
     7
 66
     1
 70
     0
 40
0.0039
 41
0.0039
  0
VERTEX
  8
LAYER1
 10
18.0139
 20
5.8906
 30
0
 70
     0
  0
VERTEX
  8
LAYER1
 10
17.8611
 20
5.8906
 30
0
 70
     0
  0
VERTEX
  8
LAYER1
 10
17.7917
 20
5.349
 30
0
 70
     0
  0
VERTEX
  8
LAYER1
 10
17.9444
 20
5.349
 30
0
 70
     0
  0
VERTEX
  8
LAYER1
 10
18.0139
 20
5.8906
 30
0
 70
     0
  0
SEQEND
  0
ENDBLK
  8
LAYER1
  0
BLOCK
  8
LAYER1
  2
Group11
 70
     0
 10
0
 20
0
 30
0
  0
POLYLINE
  8
LAYER1
  6
CONTINUOUS
 62
     7
 66
     1
 70
     0
 40
0.0039
 41
0.0039
  0
VERTEX
  8
LAYER1
 10
19.6528
 20
5.8767
 30
0
 70
     0
  0
VERTEX
  8
LAYER1
 10
19.6528
 20
5.849
 30
0
 70
     0
  0
VERTEX
  8
LAYER1
 10
19.6389
 20
5.7795
 30
0
 70
     0
  0
VERTEX
  8
LAYER1
 10
19.625
 20
5.724
 30
0
 70
     0
  0
VERTEX
  8
LAYER1
 10
19.6111
 20
5.6684
 30
0
 70
     0
  0
VERTEX
  8
LAYER1
 10
19.5833
 20
5.6128
 30
0
 70
     0
  0
VERTEX
  8
LAYER1
 10
19.5556
 20
5.5712
 30
0
 70
     0
  0
VERTEX
  8
LAYER1
 10
19.5278
 20
5.5156
 30
0
 70
     0
  0
VERTEX
  8
LAYER1
 10
19.5
 20
5.4878
 30
0
 70
     0
  0
VERTEX
  8
LAYER1
 10
19.4722
 20
5.4601
 30
0
 70
     0
  0
VERTEX
  8
LAYER1
 10
19.4444
 20
5.4323
 30
0
 70
     0
  0
VERTEX
  8
LAYER1
 10
19.3889
 20
5.3906
 30
0
 70
     0
  0
VERTEX
  8
LAYER1
 10
19.3472
 20
5.3628
 30
0
 70
     0
  0
VERTEX
  8
LAYER1
 10
19.2778
 20
5.3212
 30
0
 70
     0
  0
VERTEX
  8
LAYER1
 10
19.2361
 20
5.3073
 30
0
 70
     0
  0
VERTEX
  8
LAYER1
 10
19.1667
 20
5.2795
 30
0
 70
     0
  0
VERTEX
  8
LAYER1
 10
19.0972
 20
5.2656
 30
0
 70
     0
  0
VERTEX
  8
LAYER1
 10
19.0417
 20
5.2656
 30
0
 70
     0
  0
VERTEX
  8
LAYER1
 10
19.0139
 20
5.2656
 30
0
 70
     0
  0
VERTEX
  8
LAYER1
 10
18.9861
 20
5.2656
 30
0
 70
     0
  0
VERTEX
  8
LAYER1
 10
18.9306
 20
5.2656
 30
0
 70
     0
  0
VERTEX
  8
LAYER1
 10
18.875
 20
5.2795
 30
0
 70
     0
  0
VERTEX
  8
LAYER1
 10
18.8056
 20
5.3073
 30
0
 70
     0
  0
VERTEX
  8
LAYER1
 10
18.75
 20
5.3212
 30
0
 70
     0
  0
VERTEX
  8
LAYER1
 10
18.6944
 20
5.3628
 30
0
 70
     0
  0
VERTEX
  8
LAYER1
 10
18.6528
 20
5.3906
 30
0
 70
     0
  0
VERTEX
  8
LAYER1
 10
18.5972
 20
5.4323
 30
0
 70
     0
  0
VERTEX
  8
LAYER1
 10
18.5694
 20
5.4601
 30
0
 70
     0
  0
VERTEX
  8
LAYER1
 10
18.5417
 20
5.4878
 30
0
 70
     0
  0
VERTEX
  8
LAYER1
 10
18.5139
 20
5.5295
 30
0
 70
     0
  0
VERTEX
  8
LAYER1
 10
18.4722
 20
5.5851
 30
0
 70
     0
  0
VERTEX
  8
LAYER1
 10
18.4444
 20
5.6406
 30
0
 70
     0
  0
VERTEX
  8
LAYER1
 10
18.4167
 20
5.6962
 30
0
 70
     0
  0
VERTEX
  8
LAYER1
 10
18.4028
 20
5.7517
 30
0
 70
     0
  0
VERTEX
  8
LAYER1
 10
18.3889
 20
5.8212
 30
0
 70
     0
  0
VERTEX
  8
LAYER1
 10
18.3889
 20
5.8767
 30
0
 70
     0
  0
VERTEX
  8
LAYER1
 10
18.3889
 20
5.9045
 30
0
 70
     0
  0
VERTEX
  8
LAYER1
 10
18.3889
 20
5.9323
 30
0
 70
     0
  0
VERTEX
  8
LAYER1
 10
18.3889
 20
5.9878
 30
0
 70
     0
  0
VERTEX
  8
LAYER1
 10
18.4028
 20
6.0573
 30
0
 70
     0
  0
VERTEX
  8
LAYER1
 10
18.4167
 20
6.1128
 30
0
 70
     0
  0
VERTEX
  8
LAYER1
 10
18.4444
 20
6.1684
 30
0
 70
     0
  0
VERTEX
  8
LAYER1
 10
18.4722
 20
6.224
 30
0
 70
     0
  0
VERTEX
  8
LAYER1
 10
18.5139
 20
6.2795
 30
0
 70
     0
  0
VERTEX
  8
LAYER1
 10
18.5417
 20
6.3212
 30
0
 70
     0
  0
VERTEX
  8
LAYER1
 10
18.5694
 20
6.349
 30
0
 70
     0
  0
VERTEX
  8
LAYER1
 10
18.5972
 20
6.3767
 30
0
 70
     0
  0
VERTEX
  8
LAYER1
 10
18.6528
 20
6.4184
 30
0
 70
     0
  0
VERTEX
  8
LAYER1
 10
18.6944
 20
6.4462
 30
0
 70
     0
  0
VERTEX
  8
LAYER1
 10
18.75
 20
6.4878
 30
0
 70
     0
  0
VERTEX
  8
LAYER1
 10
18.8056
 20
6.5017
 30
0
 70
     0
  0
VERTEX
  8
LAYER1
 10
18.875
 20
6.5295
 30
0
 70
     0
  0
VERTEX
  8
LAYER1
 10
18.9306
 20
6.5434
 30
0
 70
     0
  0
VERTEX
  8
LAYER1
 10
18.9861
 20
6.5434
 30
0
 70
     0
  0
VERTEX
  8
LAYER1
 10
19.0139
 20
6.5434
 30
0
 70
     0
  0
VERTEX
  8
LAYER1
 10
19.0417
 20
6.5434
 30
0
 70
     0
  0
VERTEX
  8
LAYER1
 10
19.0972
 20
6.5434
 30
0
 70
     0
  0
VERTEX
  8
LAYER1
 10
19.1667
 20
6.5295
 30
0
 70
     0
  0
VERTEX
  8
LAYER1
 10
19.2361
 20
6.5017
 30
0
 70
     0
  0
VERTEX
  8
LAYER1
 10
19.2778
 20
6.4878
 30
0
 70
     0
  0
VERTEX
  8
LAYER1
 10
19.3472
 20
6.4462
 30
0
 70
     0
  0
VERTEX
  8
LAYER1
 10
19.3889
 20
6.4184
 30
0
 70
     0
  0
VERTEX
  8
LAYER1
 10
19.4444
 20
6.3767
 30
0
 70
     0
  0
VERTEX
  8
LAYER1
 10
19.4722
 20
6.349
 30
0
 70
     0
  0
VERTEX
  8
LAYER1
 10
19.5
 20
6.3212
 30
0
 70
     0
  0
VERTEX
  8
LAYER1
 10
19.5278
 20
6.2934
 30
0
 70
     0
  0
VERTEX
  8
LAYER1
 10
19.5556
 20
6.2378
 30
0
 70
     0
  0
VERTEX
  8
LAYER1
 10
19.5833
 20
6.1962
 30
0
 70
     0
  0
VERTEX
  8
LAYER1
 10
19.6111
 20
6.1406
 30
0
 70
     0
  0
VERTEX
  8
LAYER1
 10
19.625
 20
6.0851
 30
0
 70
     0
  0
VERTEX
  8
LAYER1
 10
19.6389
 20
6.0295
 30
0
 70
     0
  0
VERTEX
  8
LAYER1
 10
19.6528
 20
5.9601
 30
0
 70
     0
  0
VERTEX
  8
LAYER1
 10
19.6528
 20
5.9323
 30
0
 70
     0
  0
SEQEND
  0
POLYLINE
  8
LAYER1
  6
CONTINUOUS
 62
     7
 66
     1
 70
     0
 40
0.0039
 41
0.0039
  0
VERTEX
  8
LAYER1
 10
19.4028
 20
5.8767
 30
0
 70
     0
  0
VERTEX
  8
LAYER1
 10
19.4028
 20
5.849
 30
0
 70
     0
  0
VERTEX
  8
LAYER1
 10
19.3889
 20
5.7795
 30
0
 70
     0
  0
VERTEX
  8
LAYER1
 10
19.3611
 20
5.724
 30
0
 70
     0
  0
VERTEX
  8
LAYER1
 10
19.3194
 20
5.6545
 30
0
 70
     0
  0
VERTEX
  8
LAYER1
 10
19.2917
 20
5.6267
 30
0
 70
     0
  0
VERTEX
  8
LAYER1
 10
19.2639
 20
5.599
 30
0
 70
     0
  0
VERTEX
  8
LAYER1
 10
19.2083
 20
5.5573
 30
0
 70
     0
  0
VERTEX
  8
LAYER1
 10
19.1389
 20
5.5295
 30
0
 70
     0
  0
VERTEX
  8
LAYER1
 10
19.0556
 20
5.5156
 30
0
 70
     0
  0
VERTEX
  8
LAYER1
 10
19.0139
 20
5.5156
 30
0
 70
     0
  0
VERTEX
  8
LAYER1
 10
18.9722
 20
5.5156
 30
0
 70
     0
  0
VERTEX
  8
LAYER1
 10
18.9028
 20
5.5295
 30
0
 70
     0
  0
VERTEX
  8
LAYER1
 10
18.8333
 20
5.5573
 30
0
 70
     0
  0
VERTEX
  8
LAYER1
 10
18.7778
 20
5.599
 30
0
 70
     0
  0
VERTEX
  8
LAYER1
 10
18.75
 20
5.6267
 30
0
 70
     0
  0
VERTEX
  8
LAYER1
 10
18.7222
 20
5.6545
 30
0
 70
     0
  0
VERTEX
  8
LAYER1
 10
18.6806
 20
5.724
 30
0
 70
     0
  0
VERTEX
  8
LAYER1
 10
18.6528
 20
5.7934
 30
0
 70
     0
  0
VERTEX
  8
LAYER1
 10
18.6389
 20
5.8628
 30
0
 70
     0
  0
VERTEX
  8
LAYER1
 10
18.6389
 20
5.9045
 30
0
 70
     0
  0
VERTEX
  8
LAYER1
 10
18.6389
 20
5.9462
 30
0
 70
     0
  0
VERTEX
  8
LAYER1
 10
18.6528
 20
6.0156
 30
0
 70
     0
  0
VERTEX
  8
LAYER1
 10
18.6806
 20
6.0851
 30
0
 70
     0
  0
VERTEX
  8
LAYER1
 10
18.7222
 20
6.1406
 30
0
 70
     0
  0
VERTEX
  8
LAYER1
 10
18.75
 20
6.1684
 30
0
 70
     0
  0
VERTEX
  8
LAYER1
 10
18.7778
 20
6.1962
 30
0
 70
     0
  0
VERTEX
  8
LAYER1
 10
18.8333
 20
6.2378
 30
0
 70
     0
  0
VERTEX
  8
LAYER1
 10
18.9028
 20
6.2656
 30
0
 70
     0
  0
VERTEX
  8
LAYER1
 10
18.9722
 20
6.2795
 30
0
 70
     0
  0
VERTEX
  8
LAYER1
 10
19.0139
 20
6.2795
 30
0
 70
     0
  0
VERTEX
  8
LAYER1
 10
19.0556
 20
6.2795
 30
0
 70
     0
  0
VERTEX
  8
LAYER1
 10
19.1389
 20
6.2656
 30
0
 70
     0
  0
VERTEX
  8
LAYER1
 10
19.2083
 20
6.2378
 30
0
 70
     0
  0
VERTEX
  8
LAYER1
 10
19.2639
 20
6.1962
 30
0
 70
     0
  0
VERTEX
  8
LAYER1
 10
19.2917
 20
6.1684
 30
0
 70
     0
  0
VERTEX
  8
LAYER1
 10
19.3194
 20
6.1406
 30
0
 70
     0
  0
VERTEX
  8
LAYER1
 10
19.3611
 20
6.0851
 30
0
 70
     0
  0
VERTEX
  8
LAYER1
 10
19.3889
 20
6.0295
 30
0
 70
     0
  0
VERTEX
  8
LAYER1
 10
19.4028
 20
5.9601
 30
0
 70
     0
  0
VERTEX
  8
LAYER1
 10
19.4028
 20
5.9323
 30
0
 70
     0
  0
SEQEND
  0
LINE
  8
LAYER1
  6
CONTINUOUS
 62
     7
 10
19.4028
 20
5.9323
 30
0
 11
19.6528
 21
5.9323
 31
0
  0
ENDBLK
  8
LAYER1
  0
BLOCK
  8
LAYER1
  2
Group12
 70
     0
 10
0
 20
0
 30
0
  0
LINE
  8
LAYER1
  6
CONTINUOUS
 62
     7
 10
19.4028
 20
5.8767
 30
0
 11
19.6528
 21
5.8767
 31
0
  0
LINE
  8
LAYER1
  6
CONTINUOUS
 62
     7
 10
20.0833
 20
6.5434
 30
0
 11
20.0833
 21
5.2656
 31
0
  0
LINE
  8
LAYER1
  6
CONTINUOUS
 62
     7
 10
19.8889
 20
5.2656
 30
0
 11
19.8889
 21
6.5434
 31
0
  0
POLYLINE
  8
LAYER1
  6
CONTINUOUS
 62
     7
 66
     1
 70
     0
 40
0.0039
 41
0.0039
  0
VERTEX
  8
LAYER1
 10
19.8194
 20
5.9323
 30
0
 70
     0
  0
VERTEX
  8
LAYER1
 10
20
 20
5.9323
 30
0
 70
     0
  0
VERTEX
  8
LAYER1
 10
20.0833
 20
6.5434
 30
0
 70
     0
  0
VERTEX
  8
LAYER1
 10
19.8889
 20
6.5434
 30
0
 70
     0
  0
VERTEX
  8
LAYER1
 10
19.8194
 20
5.9323
 30
0
 70
     0
  0
SEQEND
  0
POLYLINE
  8
LAYER1
  6
CONTINUOUS
 62
     7
 66
     1
 70
     0
 40
0.0039
 41
0.0039
  0
VERTEX
  8
LAYER1
 10
20.1528
 20
5.8767
 30
0
 70
     0
  0
VERTEX
  8
LAYER1
 10
19.9722
 20
5.8767
 30
0
 70
     0
  0
VERTEX
  8
LAYER1
 10
19.8889
 20
5.2656
 30
0
 70
     0
  0
VERTEX
  8
LAYER1
 10
20.0833
 20
5.2656
 30
0
 70
     0
  0
VERTEX
  8
LAYER1
 10
20.1528
 20
5.8767
 30
0
 70
     0
  0
SEQEND
  0
ENDBLK
  8
LAYER1
  0
BLOCK
  8
LAYER1
  2
Group13
 70
     0
 10
0
 20
0
 30
0
  0
POLYLINE
  8
LAYER1
  6
CONTINUOUS
 62
     7
 66
     1
 70
     0
 40
0.0039
 41
0.0039
  0
VERTEX
  8
LAYER1
 10
16.4167
 20
2.8628
 30
0
 70
     0
  0
VERTEX
  8
LAYER1
 10
16.4167
 20
2.8351
 30
0
 70
     0
  0
VERTEX
  8
LAYER1
 10
16.4028
 20
2.7517
 30
0
 70
     0
  0
VERTEX
  8
LAYER1
 10
16.3889
 20
2.6823
 30
0
 70
     0
  0
VERTEX
  8
LAYER1
 10
16.375
 20
2.6267
 30
0
 70
     0
  0
VERTEX
  8
LAYER1
 10
16.3472
 20
2.5712
 30
0
 70
     0
  0
VERTEX
  8
LAYER1
 10
16.3056
 20
2.5017
 30
0
 70
     0
  0
VERTEX
  8
LAYER1
 10
16.2639
 20
2.4462
 30
0
 70
     0
  0
VERTEX
  8
LAYER1
 10
16.2222
 20
2.4045
 30
0
 70
     0
  0
VERTEX
  8
LAYER1
 10
16.1944
 20
2.3767
 30
0
 70
     0
  0
VERTEX
  8
LAYER1
 10
16.1667
 20
2.349
 30
0
 70
     0
  0
VERTEX
  8
LAYER1
 10
16.1111
 20
2.2934
 30
0
 70
     0
  0
VERTEX
  8
LAYER1
 10
16.0417
 20
2.2517
 30
0
 70
     0
  0
VERTEX
  8
LAYER1
 10
16
 20
2.224
 30
0
 70
     0
  0
VERTEX
  8
LAYER1
 10
15.9306
 20
2.1962
 30
0
 70
     0
  0
VERTEX
  8
LAYER1
 10
15.8611
 20
2.1684
 30
0
 70
     0
  0
VERTEX
  8
LAYER1
 10
15.7917
 20
2.1545
 30
0
 70
     0
  0
VERTEX
  8
LAYER1
 10
15.7222
 20
2.1545
 30
0
 70
     0
  0
VERTEX
  8
LAYER1
 10
15.6806
 20
2.1545
 30
0
 70
     0
  0
VERTEX
  8
LAYER1
 10
15.6389
 20
2.1545
 30
0
 70
     0
  0
VERTEX
  8
LAYER1
 10
15.5694
 20
2.1545
 30
0
 70
     0
  0
VERTEX
  8
LAYER1
 10
15.5
 20
2.1684
 30
0
 70
     0
  0
VERTEX
  8
LAYER1
 10
15.4306
 20
2.1962
 30
0
 70
     0
  0
VERTEX
  8
LAYER1
 10
15.3611
 20
2.224
 30
0
 70
     0
  0
VERTEX
  8
LAYER1
 10
15.3194
 20
2.2517
 30
0
 70
     0
  0
VERTEX
  8
LAYER1
 10
15.25
 20
2.2934
 30
0
 70
     0
  0
VERTEX
  8
LAYER1
 10
15.1944
 20
2.349
 30
0
 70
     0
  0
VERTEX
  8
LAYER1
 10
15.1667
 20
2.3767
 30
0
 70
     0
  0
VERTEX
  8
LAYER1
 10
15.1389
 20
2.4045
 30
0
 70
     0
  0
VERTEX
  8
LAYER1
 10
15.0972
 20
2.4462
 30
0
 70
     0
  0
VERTEX
  8
LAYER1
 10
15.0556
 20
2.5156
 30
0
 70
     0
  0
VERTEX
  8
LAYER1
 10
15.0139
 20
2.5712
 30
0
 70
     0
  0
VERTEX
  8
LAYER1
 10
14.9861
 20
2.6406
 30
0
 70
     0
  0
VERTEX
  8
LAYER1
 10
14.9722
 20
2.6962
 30
0
 70
     0
  0
VERTEX
  8
LAYER1
 10
14.9583
 20
2.7656
 30
0
 70
     0
  0
VERTEX
  8
LAYER1
 10
14.9444
 20
2.849
 30
0
 70
     0
  0
VERTEX
  8
LAYER1
 10
14.9444
 20
2.8906
 30
0
 70
     0
  0
VERTEX
  8
LAYER1
 10
14.9444
 20
2.9323
 30
0
 70
     0
  0
VERTEX
  8
LAYER1
 10
14.9583
 20
3.0156
 30
0
 70
     0
  0
VERTEX
  8
LAYER1
 10
14.9722
 20
3.0851
 30
0
 70
     0
  0
VERTEX
  8
LAYER1
 10
14.9861
 20
3.1406
 30
0
 70
     0
  0
VERTEX
  8
LAYER1
 10
15.0139
 20
3.2101
 30
0
 70
     0
  0
VERTEX
  8
LAYER1
 10
15.0556
 20
3.2656
 30
0
 70
     0
  0
VERTEX
  8
LAYER1
 10
15.0972
 20
3.3351
 30
0
 70
     0
  0
VERTEX
  8
LAYER1
 10
15.1389
 20
3.3767
 30
0
 70
     0
  0
VERTEX
  8
LAYER1
 10
15.1667
 20
3.4045
 30
0
 70
     0
  0
VERTEX
  8
LAYER1
 10
15.1944
 20
3.4323
 30
0
 70
     0
  0
VERTEX
  8
LAYER1
 10
15.2361
 20
3.474
 30
0
 70
     0
  0
VERTEX
  8
LAYER1
 10
15.3194
 20
3.5156
 30
0
 70
     0
  0
VERTEX
  8
LAYER1
 10
15.3611
 20
3.5434
 30
0
 70
     0
  0
VERTEX
  8
LAYER1
 10
15.4306
 20
3.5712
 30
0
 70
     0
  0
VERTEX
  8
LAYER1
 10
15.5
 20
3.599
 30
0
 70
     0
  0
VERTEX
  8
LAYER1
 10
15.5694
 20
3.6128
 30
0
 70
     0
  0
VERTEX
  8
LAYER1
 10
15.6389
 20
3.6128
 30
0
 70
     0
  0
VERTEX
  8
LAYER1
 10
15.6806
 20
3.6128
 30
0
 70
     0
  0
VERTEX
  8
LAYER1
 10
15.7222
 20
3.6128
 30
0
 70
     0
  0
VERTEX
  8
LAYER1
 10
15.7917
 20
3.6128
 30
0
 70
     0
  0
VERTEX
  8
LAYER1
 10
15.8611
 20
3.599
 30
0
 70
     0
  0
VERTEX
  8
LAYER1
 10
15.9306
 20
3.5712
 30
0
 70
     0
  0
VERTEX
  8
LAYER1
 10
16
 20
3.5434
 30
0
 70
     0
  0
VERTEX
  8
LAYER1
 10
16.0417
 20
3.5156
 30
0
 70
     0
  0
VERTEX
  8
LAYER1
 10
16.125
 20
3.474
 30
0
 70
     0
  0
VERTEX
  8
LAYER1
 10
16.1667
 20
3.4323
 30
0
 70
     0
  0
VERTEX
  8
LAYER1
 10
16.1944
 20
3.4045
 30
0
 70
     0
  0
VERTEX
  8
LAYER1
 10
16.2222
 20
3.3767
 30
0
 70
     0
  0
VERTEX
  8
LAYER1
 10
16.2639
 20
3.3351
 30
0
 70
     0
  0
VERTEX
  8
LAYER1
 10
16.3056
 20
3.2795
 30
0
 70
     0
  0
VERTEX
  8
LAYER1
 10
16.3472
 20
3.2101
 30
0
 70
     0
  0
VERTEX
  8
LAYER1
 10
16.375
 20
3.1545
 30
0
 70
     0
  0
VERTEX
  8
LAYER1
 10
16.3889
 20
3.099
 30
0
 70
     0
  0
VERTEX
  8
LAYER1
 10
16.4028
 20
3.0295
 30
0
 70
     0
  0
VERTEX
  8
LAYER1
 10
16.4167
 20
2.9462
 30
0
 70
     0
  0
VERTEX
  8
LAYER1
 10
16.4167
 20
2.9184
 30
0
 70
     0
  0
SEQEND
  0
POLYLINE
  8
LAYER1
  6
CONTINUOUS
 62
     7
 66
     1
 70
     0
 40
0.0039
 41
0.0039
  0
VERTEX
  8
LAYER1
 10
16.125
 20
2.8628
 30
0
 70
     0
  0
VERTEX
  8
LAYER1
 10
16.125
 20
2.8212
 30
0
 70
     0
  0
VERTEX
  8
LAYER1
 10
16.0972
 20
2.7378
 30
0
 70
     0
  0
VERTEX
  8
LAYER1
 10
16.0694
 20
2.6684
 30
0
 70
     0
  0
VERTEX
  8
LAYER1
 10
16.0278
 20
2.599
 30
0
 70
     0
  0
VERTEX
  8
LAYER1
 10
16
 20
2.5712
 30
0
 70
     0
  0
VERTEX
  8
LAYER1
 10
15.9861
 20
2.5573
 30
0
 70
     0
  0
VERTEX
  8
LAYER1
 10
15.9583
 20
2.5295
 30
0
 70
     0
  0
VERTEX
  8
LAYER1
 10
15.9028
 20
2.5017
 30
0
 70
     0
  0
VERTEX
  8
LAYER1
 10
15.875
 20
2.4878
 30
0
 70
     0
  0
VERTEX
  8
LAYER1
 10
15.8333
 20
2.474
 30
0
 70
     0
  0
VERTEX
  8
LAYER1
 10
15.7917
 20
2.4601
 30
0
 70
     0
  0
VERTEX
  8
LAYER1
 10
15.7361
 20
2.4462
 30
0
 70
     0
  0
VERTEX
  8
LAYER1
 10
15.7083
 20
2.4462
 30
0
 70
     0
  0
VERTEX
  8
LAYER1
 10
15.6806
 20
2.4462
 30
0
 70
     0
  0
VERTEX
  8
LAYER1
 10
15.6528
 20
2.4462
 30
0
 70
     0
  0
VERTEX
  8
LAYER1
 10
15.625
 20
2.4462
 30
0
 70
     0
  0
VERTEX
  8
LAYER1
 10
15.5694
 20
2.4601
 30
0
 70
     0
  0
VERTEX
  8
LAYER1
 10
15.5278
 20
2.474
 30
0
 70
     0
  0
VERTEX
  8
LAYER1
 10
15.4861
 20
2.4878
 30
0
 70
     0
  0
VERTEX
  8
LAYER1
 10
15.4583
 20
2.5017
 30
0
 70
     0
  0
VERTEX
  8
LAYER1
 10
15.4028
 20
2.5295
 30
0
 70
     0
  0
VERTEX
  8
LAYER1
 10
15.375
 20
2.5573
 30
0
 70
     0
  0
VERTEX
  8
LAYER1
 10
15.3611
 20
2.5712
 30
0
 70
     0
  0
VERTEX
  8
LAYER1
 10
15.3472
 20
2.5851
 30
0
 70
     0
  0
VERTEX
  8
LAYER1
 10
15.3194
 20
2.6128
 30
0
 70
     0
  0
VERTEX
  8
LAYER1
 10
15.2917
 20
2.6684
 30
0
 70
     0
  0
VERTEX
  8
LAYER1
 10
15.2778
 20
2.6823
 30
0
 70
     0
  0
VERTEX
  8
LAYER1
 10
15.2639
 20
2.724
 30
0
 70
     0
  0
VERTEX
  8
LAYER1
 10
15.25
 20
2.7656
 30
0
 70
     0
  0
VERTEX
  8
LAYER1
 10
15.2361
 20
2.8212
 30
0
 70
     0
  0
VERTEX
  8
LAYER1
 10
15.2361
 20
2.8628
 30
0
 70
     0
  0
VERTEX
  8
LAYER1
 10
15.2361
 20
2.8906
 30
0
 70
     0
  0
VERTEX
  8
LAYER1
 10
15.2361
 20
2.9184
 30
0
 70
     0
  0
VERTEX
  8
LAYER1
 10
15.2361
 20
2.9462
 30
0
 70
     0
  0
VERTEX
  8
LAYER1
 10
15.25
 20
3.0017
 30
0
 70
     0
  0
VERTEX
  8
LAYER1
 10
15.2639
 20
3.0434
 30
0
 70
     0
  0
VERTEX
  8
LAYER1
 10
15.2778
 20
3.0851
 30
0
 70
     0
  0
VERTEX
  8
LAYER1
 10
15.2917
 20
3.1128
 30
0
 70
     0
  0
VERTEX
  8
LAYER1
 10
15.3194
 20
3.1545
 30
0
 70
     0
  0
VERTEX
  8
LAYER1
 10
15.3472
 20
3.1823
 30
0
 70
     0
  0
VERTEX
  8
LAYER1
 10
15.3611
 20
3.1962
 30
0
 70
     0
  0
VERTEX
  8
LAYER1
 10
15.375
 20
3.2101
 30
0
 70
     0
  0
VERTEX
  8
LAYER1
 10
15.4028
 20
3.2378
 30
0
 70
     0
  0
VERTEX
  8
LAYER1
 10
15.4444
 20
3.2656
 30
0
 70
     0
  0
VERTEX
  8
LAYER1
 10
15.5
 20
3.2934
 30
0
 70
     0
  0
VERTEX
  8
LAYER1
 10
15.5278
 20
3.3073
 30
0
 70
     0
  0
VERTEX
  8
LAYER1
 10
15.5694
 20
3.3212
 30
0
 70
     0
  0
VERTEX
  8
LAYER1
 10
15.625
 20
3.3351
 30
0
 70
     0
  0
VERTEX
  8
LAYER1
 10
15.6528
 20
3.3351
 30
0
 70
     0
  0
VERTEX
  8
LAYER1
 10
15.6806
 20
3.3351
 30
0
 70
     0
  0
VERTEX
  8
LAYER1
 10
15.7083
 20
3.3351
 30
0
 70
     0
  0
VERTEX
  8
LAYER1
 10
15.7361
 20
3.3351
 30
0
 70
     0
  0
VERTEX
  8
LAYER1
 10
15.7917
 20
3.3212
 30
0
 70
     0
  0
VERTEX
  8
LAYER1
 10
15.8333
 20
3.3073
 30
0
 70
     0
  0
VERTEX
  8
LAYER1
 10
15.8611
 20
3.2934
 30
0
 70
     0
  0
VERTEX
  8
LAYER1
 10
15.9167
 20
3.2656
 30
0
 70
     0
  0
VERTEX
  8
LAYER1
 10
15.9583
 20
3.2378
 30
0
 70
     0
  0
VERTEX
  8
LAYER1
 10
15.9861
 20
3.2101
 30
0
 70
     0
  0
VERTEX
  8
LAYER1
 10
16
 20
3.1962
 30
0
 70
     0
  0
VERTEX
  8
LAYER1
 10
16.0278
 20
3.1684
 30
0
 70
     0
  0
VERTEX
  8
LAYER1
 10
16.0694
 20
3.1128
 30
0
 70
     0
  0
VERTEX
  8
LAYER1
 10
16.0972
 20
3.0434
 30
0
 70
     0
  0
VERTEX
  8
LAYER1
 10
16.125
 20
2.9601
 30
0
 70
     0
  0
VERTEX
  8
LAYER1
 10
16.125
 20
2.9184
 30
0
 70
     0
  0
SEQEND
  0
LINE
  8
LAYER1
  6
CONTINUOUS
 62
     7
 10
16.125
 20
2.8628
 30
0
 11
16.4167
 21
2.8628
 31
0
  0
ENDBLK
  8
LAYER1
  0
BLOCK
  8
LAYER1
  2
Group14
 70
     0
 10
0
 20
0
 30
0
  0
LINE
  8
LAYER1
  6
CONTINUOUS
 62
     7
 10
16.125
 20
2.9184
 30
0
 11
16.4167
 21
2.9184
 31
0
  0
LINE
  8
LAYER1
  6
CONTINUOUS
 62
     7
 10
16.7639
 20
3.6128
 30
0
 11
16.7639
 21
2.1545
 31
0
  0
LINE
  8
LAYER1
  6
CONTINUOUS
 62
     7
 10
16.5417
 20
2.1545
 30
0
 11
16.5417
 21
3.6128
 31
0
  0
POLYLINE
  8
LAYER1
  6
CONTINUOUS
 62
     7
 66
     1
 70
     0
 40
0.0039
 41
0.0039
  0
VERTEX
  8
LAYER1
 10
16.4583
 20
2.9184
 30
0
 70
     0
  0
VERTEX
  8
LAYER1
 10
16.6806
 20
2.9184
 30
0
 70
     0
  0
VERTEX
  8
LAYER1
 10
16.7639
 20
3.6128
 30
0
 70
     0
  0
VERTEX
  8
LAYER1
 10
16.5417
 20
3.6128
 30
0
 70
     0
  0
VERTEX
  8
LAYER1
 10
16.4583
 20
2.9184
 30
0
 70
     0
  0
SEQEND
  0
POLYLINE
  8
LAYER1
  6
CONTINUOUS
 62
     7
 66
     1
 70
     0
 40
0.0039
 41
0.0039
  0
VERTEX
  8
LAYER1
 10
16.8472
 20
2.8628
 30
0
 70
     0
  0
VERTEX
  8
LAYER1
 10
16.625
 20
2.8628
 30
0
 70
     0
  0
VERTEX
  8
LAYER1
 10
16.5417
 20
2.1545
 30
0
 70
     0
  0
VERTEX
  8
LAYER1
 10
16.7639
 20
2.1545
 30
0
 70
     0
  0
VERTEX
  8
LAYER1
 10
16.8472
 20
2.8628
 30
0
 70
     0
  0
SEQEND
  0
ENDBLK
  8
LAYER1
  0
BLOCK
  8
LAYER1
  2
Group15
 70
     0
 10
0
 20
0
 30
0
  0
POLYLINE
  8
LAYER1
  6
CONTINUOUS
 62
     7
 66
     1
 70
     0
 40
0.0039
 41
0.0039
  0
VERTEX
  8
LAYER1
 10
10.2917
 20
9.2934
 30
0
 70
     0
  0
VERTEX
  8
LAYER1
 10
10.2917
 20
9.2656
 30
0
 70
     0
  0
VERTEX
  8
LAYER1
 10
10.2778
 20
9.1684
 30
0
 70
     0
  0
VERTEX
  8
LAYER1
 10
10.2639
 20
9.1128
 30
0
 70
     0
  0
VERTEX
  8
LAYER1
 10
10.2361
 20
9.0295
 30
0
 70
     0
  0
VERTEX
  8
LAYER1
 10
10.2083
 20
8.9601
 30
0
 70
     0
  0
VERTEX
  8
LAYER1
 10
10.1667
 20
8.8906
 30
0
 70
     0
  0
VERTEX
  8
LAYER1
 10
10.125
 20
8.8351
 30
0
 70
     0
  0
VERTEX
  8
LAYER1
 10
10.0694
 20
8.7656
 30
0
 70
     0
  0
VERTEX
  8
LAYER1
 10
10.0417
 20
8.7378
 30
0
 70
     0
  0
VERTEX
  8
LAYER1
 10
10.0139
 20
8.7101
 30
0
 70
     0
  0
VERTEX
  8
LAYER1
 10
9.9444
 20
8.6545
 30
0
 70
     0
  0
VERTEX
  8
LAYER1
 10
9.8889
 20
8.6128
 30
0
 70
     0
  0
VERTEX
  8
LAYER1
 10
9.8056
 20
8.5712
 30
0
 70
     0
  0
VERTEX
  8
LAYER1
 10
9.7361
 20
8.5434
 30
0
 70
     0
  0
VERTEX
  8
LAYER1
 10
9.6667
 20
8.5295
 30
0
 70
     0
  0
VERTEX
  8
LAYER1
 10
9.5972
 20
8.5156
 30
0
 70
     0
  0
VERTEX
  8
LAYER1
 10
9.5
 20
8.5017
 30
0
 70
     0
  0
VERTEX
  8
LAYER1
 10
9.4583
 20
8.5017
 30
0
 70
     0
  0
VERTEX
  8
LAYER1
 10
9.4167
 20
8.5017
 30
0
 70
     0
  0
VERTEX
  8
LAYER1
 10
9.3194
 20
8.5156
 30
0
 70
     0
  0
VERTEX
  8
LAYER1
 10
9.25
 20
8.5295
 30
0
 70
     0
  0
VERTEX
  8
LAYER1
 10
9.1806
 20
8.5434
 30
0
 70
     0
  0
VERTEX
  8
LAYER1
 10
9.1111
 20
8.5712
 30
0
 70
     0
  0
VERTEX
  8
LAYER1
 10
9.0278
 20
8.6128
 30
0
 70
     0
  0
VERTEX
  8
LAYER1
 10
8.9722
 20
8.6545
 30
0
 70
     0
  0
VERTEX
  8
LAYER1
 10
8.9028
 20
8.7101
 30
0
 70
     0
  0
VERTEX
  8
LAYER1
 10
8.875
 20
8.7378
 30
0
 70
     0
  0
VERTEX
  8
LAYER1
 10
8.8472
 20
8.7656
 30
0
 70
     0
  0
VERTEX
  8
LAYER1
 10
8.7917
 20
8.8212
 30
0
 70
     0
  0
VERTEX
  8
LAYER1
 10
8.7361
 20
8.9045
 30
0
 70
     0
  0
VERTEX
  8
LAYER1
 10
8.7083
 20
8.9601
 30
0
 70
     0
  0
VERTEX
  8
LAYER1
 10
8.6667
 20
9.0573
 30
0
 70
     0
  0
VERTEX
  8
LAYER1
 10
8.6528
 20
9.1128
 30
0
 70
     0
  0
VERTEX
  8
LAYER1
 10
8.6389
 20
9.1962
 30
0
 70
     0
  0
VERTEX
  8
LAYER1
 10
8.625
 20
9.2795
 30
0
 70
     0
  0
VERTEX
  8
LAYER1
 10
8.625
 20
9.3212
 30
0
 70
     0
  0
VERTEX
  8
LAYER1
 10
8.625
 20
9.3628
 30
0
 70
     0
  0
VERTEX
  8
LAYER1
 10
8.6389
 20
9.4601
 30
0
 70
     0
  0
VERTEX
  8
LAYER1
 10
8.6528
 20
9.5295
 30
0
 70
     0
  0
VERTEX
  8
LAYER1
 10
8.6667
 20
9.599
 30
0
 70
     0
  0
VERTEX
  8
LAYER1
 10
8.7083
 20
9.6823
 30
0
 70
     0
  0
VERTEX
  8
LAYER1
 10
8.7361
 20
9.7517
 30
0
 70
     0
  0
VERTEX
  8
LAYER1
 10
8.7917
 20
9.8351
 30
0
 70
     0
  0
VERTEX
  8
LAYER1
 10
8.8472
 20
9.8906
 30
0
 70
     0
  0
VERTEX
  8
LAYER1
 10
8.875
 20
9.9184
 30
0
 70
     0
  0
VERTEX
  8
LAYER1
 10
8.9028
 20
9.9462
 30
0
 70
     0
  0
VERTEX
  8
LAYER1
 10
8.9722
 20
10.0017
 30
0
 70
     0
  0
VERTEX
  8
LAYER1
 10
9.0278
 20
10.0434
 30
0
 70
     0
  0
VERTEX
  8
LAYER1
 10
9.1111
 20
10.0851
 30
0
 70
     0
  0
VERTEX
  8
LAYER1
 10
9.1806
 20
10.1128
 30
0
 70
     0
  0
VERTEX
  8
LAYER1
 10
9.25
 20
10.1267
 30
0
 70
     0
  0
VERTEX
  8
LAYER1
 10
9.3194
 20
10.1406
 30
0
 70
     0
  0
VERTEX
  8
LAYER1
 10
9.4167
 20
10.1545
 30
0
 70
     0
  0
VERTEX
  8
LAYER1
 10
9.4583
 20
10.1545
 30
0
 70
     0
  0
VERTEX
  8
LAYER1
 10
9.5
 20
10.1545
 30
0
 70
     0
  0
VERTEX
  8
LAYER1
 10
9.5972
 20
10.1406
 30
0
 70
     0
  0
VERTEX
  8
LAYER1
 10
9.6667
 20
10.1267
 30
0
 70
     0
  0
VERTEX
  8
LAYER1
 10
9.7361
 20
10.1128
 30
0
 70
     0
  0
VERTEX
  8
LAYER1
 10
9.8056
 20
10.0851
 30
0
 70
     0
  0
VERTEX
  8
LAYER1
 10
9.8889
 20
10.0434
 30
0
 70
     0
  0
VERTEX
  8
LAYER1
 10
9.9444
 20
10.0017
 30
0
 70
     0
  0
VERTEX
  8
LAYER1
 10
10.0139
 20
9.9462
 30
0
 70
     0
  0
VERTEX
  8
LAYER1
 10
10.0417
 20
9.9184
 30
0
 70
     0
  0
VERTEX
  8
LAYER1
 10
10.0694
 20
9.8906
 30
0
 70
     0
  0
VERTEX
  8
LAYER1
 10
10.125
 20
9.8212
 30
0
 70
     0
  0
VERTEX
  8
LAYER1
 10
10.1667
 20
9.7656
 30
0
 70
     0
  0
VERTEX
  8
LAYER1
 10
10.2083
 20
9.6962
 30
0
 70
     0
  0
VERTEX
  8
LAYER1
 10
10.2361
 20
9.6267
 30
0
 70
     0
  0
VERTEX
  8
LAYER1
 10
10.2639
 20
9.5434
 30
0
 70
     0
  0
VERTEX
  8
LAYER1
 10
10.2778
 20
9.4878
 30
0
 70
     0
  0
VERTEX
  8
LAYER1
 10
10.2917
 20
9.3906
 30
0
 70
     0
  0
VERTEX
  8
LAYER1
 10
10.2917
 20
9.3628
 30
0
 70
     0
  0
SEQEND
  0
POLYLINE
  8
LAYER1
  6
CONTINUOUS
 62
     7
 66
     1
 70
     0
 40
0.0039
 41
0.0039
  0
VERTEX
  8
LAYER1
 10
9.9722
 20
9.2934
 30
0
 70
     0
  0
VERTEX
  8
LAYER1
 10
9.9722
 20
9.2795
 30
0
 70
     0
  0
VERTEX
  8
LAYER1
 10
9.9583
 20
9.2101
 30
0
 70
     0
  0
VERTEX
  8
LAYER1
 10
9.9583
 20
9.1823
 30
0
 70
     0
  0
VERTEX
  8
LAYER1
 10
9.9306
 20
9.1267
 30
0
 70
     0
  0
VERTEX
  8
LAYER1
 10
9.9167
 20
9.0851
 30
0
 70
     0
  0
VERTEX
  8
LAYER1
 10
9.8889
 20
9.0573
 30
0
 70
     0
  0
VERTEX
  8
LAYER1
 10
9.8611
 20
9.0156
 30
0
 70
     0
  0
VERTEX
  8
LAYER1
 10
9.8333
 20
8.9878
 30
0
 70
     0
  0
VERTEX
  8
LAYER1
 10
9.8194
 20
8.974
 30
0
 70
     0
  0
VERTEX
  8
LAYER1
 10
9.8056
 20
8.9601
 30
0
 70
     0
  0
VERTEX
  8
LAYER1
 10
9.75
 20
8.9184
 30
0
 70
     0
  0
VERTEX
  8
LAYER1
 10
9.7083
 20
8.8906
 30
0
 70
     0
  0
VERTEX
  8
LAYER1
 10
9.6667
 20
8.8628
 30
0
 70
     0
  0
VERTEX
  8
LAYER1
 10
9.625
 20
8.849
 30
0
 70
     0
  0
VERTEX
  8
LAYER1
 10
9.5833
 20
8.8351
 30
0
 70
     0
  0
VERTEX
  8
LAYER1
 10
9.5278
 20
8.8212
 30
0
 70
     0
  0
VERTEX
  8
LAYER1
 10
9.4861
 20
8.8212
 30
0
 70
     0
  0
VERTEX
  8
LAYER1
 10
9.4583
 20
8.8212
 30
0
 70
     0
  0
VERTEX
  8
LAYER1
 10
9.4306
 20
8.8212
 30
0
 70
     0
  0
VERTEX
  8
LAYER1
 10
9.3889
 20
8.8212
 30
0
 70
     0
  0
VERTEX
  8
LAYER1
 10
9.3333
 20
8.8351
 30
0
 70
     0
  0
VERTEX
  8
LAYER1
 10
9.2917
 20
8.849
 30
0
 70
     0
  0
VERTEX
  8
LAYER1
 10
9.25
 20
8.8628
 30
0
 70
     0
  0
VERTEX
  8
LAYER1
 10
9.2083
 20
8.8906
 30
0
 70
     0
  0
VERTEX
  8
LAYER1
 10
9.1667
 20
8.9184
 30
0
 70
     0
  0
VERTEX
  8
LAYER1
 10
9.1111
 20
8.9601
 30
0
 70
     0
  0
VERTEX
  8
LAYER1
 10
9.0972
 20
8.974
 30
0
 70
     0
  0
VERTEX
  8
LAYER1
 10
9.0833
 20
8.9878
 30
0
 70
     0
  0
VERTEX
  8
LAYER1
 10
9.0556
 20
9.0156
 30
0
 70
     0
  0
VERTEX
  8
LAYER1
 10
9.0278
 20
9.0573
 30
0
 70
     0
  0
VERTEX
  8
LAYER1
 10
9
 20
9.1128
 30
0
 70
     0
  0
VERTEX
  8
LAYER1
 10
8.9861
 20
9.1406
 30
0
 70
     0
  0
VERTEX
  8
LAYER1
 10
8.9722
 20
9.1962
 30
0
 70
     0
  0
VERTEX
  8
LAYER1
 10
8.9583
 20
9.2517
 30
0
 70
     0
  0
VERTEX
  8
LAYER1
 10
8.9583
 20
9.2934
 30
0
 70
     0
  0
VERTEX
  8
LAYER1
 10
8.9583
 20
9.3212
 30
0
 70
     0
  0
VERTEX
  8
LAYER1
 10
8.9583
 20
9.349
 30
0
 70
     0
  0
VERTEX
  8
LAYER1
 10
8.9583
 20
9.3906
 30
0
 70
     0
  0
VERTEX
  8
LAYER1
 10
8.9722
 20
9.4601
 30
0
 70
     0
  0
VERTEX
  8
LAYER1
 10
8.9861
 20
9.5017
 30
0
 70
     0
  0
VERTEX
  8
LAYER1
 10
9
 20
9.5434
 30
0
 70
     0
  0
VERTEX
  8
LAYER1
 10
9.0278
 20
9.599
 30
0
 70
     0
  0
VERTEX
  8
LAYER1
 10
9.0556
 20
9.6406
 30
0
 70
     0
  0
VERTEX
  8
LAYER1
 10
9.0833
 20
9.6684
 30
0
 70
     0
  0
VERTEX
  8
LAYER1
 10
9.0972
 20
9.6823
 30
0
 70
     0
  0
VERTEX
  8
LAYER1
 10
9.1111
 20
9.6962
 30
0
 70
     0
  0
VERTEX
  8
LAYER1
 10
9.1667
 20
9.7378
 30
0
 70
     0
  0
VERTEX
  8
LAYER1
 10
9.2083
 20
9.7656
 30
0
 70
     0
  0
VERTEX
  8
LAYER1
 10
9.25
 20
9.7934
 30
0
 70
     0
  0
VERTEX
  8
LAYER1
 10
9.2917
 20
9.8073
 30
0
 70
     0
  0
VERTEX
  8
LAYER1
 10
9.3333
 20
9.8212
 30
0
 70
     0
  0
VERTEX
  8
LAYER1
 10
9.3889
 20
9.8351
 30
0
 70
     0
  0
VERTEX
  8
LAYER1
 10
9.4306
 20
9.8351
 30
0
 70
     0
  0
VERTEX
  8
LAYER1
 10
9.4583
 20
9.8351
 30
0
 70
     0
  0
VERTEX
  8
LAYER1
 10
9.4861
 20
9.8351
 30
0
 70
     0
  0
VERTEX
  8
LAYER1
 10
9.5278
 20
9.8351
 30
0
 70
     0
  0
VERTEX
  8
LAYER1
 10
9.5833
 20
9.8212
 30
0
 70
     0
  0
VERTEX
  8
LAYER1
 10
9.625
 20
9.8073
 30
0
 70
     0
  0
VERTEX
  8
LAYER1
 10
9.6667
 20
9.7934
 30
0
 70
     0
  0
VERTEX
  8
LAYER1
 10
9.7083
 20
9.7656
 30
0
 70
     0
  0
VERTEX
  8
LAYER1
 10
9.75
 20
9.7378
 30
0
 70
     0
  0
VERTEX
  8
LAYER1
 10
9.8056
 20
9.6962
 30
0
 70
     0
  0
VERTEX
  8
LAYER1
 10
9.8194
 20
9.6823
 30
0
 70
     0
  0
VERTEX
  8
LAYER1
 10
9.8333
 20
9.6684
 30
0
 70
     0
  0
VERTEX
  8
LAYER1
 10
9.8611
 20
9.6406
 30
0
 70
     0
  0
VERTEX
  8
LAYER1
 10
9.8889
 20
9.599
 30
0
 70
     0
  0
VERTEX
  8
LAYER1
 10
9.9167
 20
9.5573
 30
0
 70
     0
  0
VERTEX
  8
LAYER1
 10
9.9306
 20
9.5156
 30
0
 70
     0
  0
VERTEX
  8
LAYER1
 10
9.9583
 20
9.4601
 30
0
 70
     0
  0
VERTEX
  8
LAYER1
 10
9.9583
 20
9.4323
 30
0
 70
     0
  0
VERTEX
  8
LAYER1
 10
9.9722
 20
9.3767
 30
0
 70
     0
  0
VERTEX
  8
LAYER1
 10
9.9722
 20
9.3628
 30
0
 70
     0
  0
SEQEND
  0
LINE
  8
LAYER1
  6
CONTINUOUS
 62
     7
 10
9.9722
 20
9.3628
 30
0
 11
10.2917
 21
9.3628
 31
0
  0
ENDBLK
  8
LAYER1
  0
BLOCK
  8
LAYER1
  2
Group16
 70
     0
 10
0
 20
0
 30
0
  0
LINE
  8
LAYER1
  6
CONTINUOUS
 62
     7
 10
9.9722
 20
9.2934
 30
0
 11
10.2917
 21
9.2934
 31
0
  0
POLYLINE
  8
LAYER1
  6
CONTINUOUS
 62
     7
 66
     1
 70
     0
 40
0.0039
 41
0.0039
  0
VERTEX
  8
LAYER1
 10
13.1667
 20
9.224
 30
0
 70
     0
  0
VERTEX
  8
LAYER1
 10
13.1667
 20
9.1823
 30
0
 70
     0
  0
VERTEX
  8
LAYER1
 10
13.1528
 20
9.0851
 30
0
 70
     0
  0
VERTEX
  8
LAYER1
 10
13.1389
 20
9.0156
 30
0
 70
     0
  0
VERTEX
  8
LAYER1
 10
13.1111
 20
8.9323
 30
0
 70
     0
  0
VERTEX
  8
LAYER1
 10
13.0833
 20
8.8628
 30
0
 70
     0
  0
VERTEX
  8
LAYER1
 10
13.0417
 20
8.7795
 30
0
 70
     0
  0
VERTEX
  8
LAYER1
 10
12.9861
 20
8.7101
 30
0
 70
     0
  0
VERTEX
  8
LAYER1
 10
12.9306
 20
8.6406
 30
0
 70
     0
  0
VERTEX
  8
LAYER1
 10
12.9028
 20
8.6128
 30
0
 70
     0
  0
VERTEX
  8
LAYER1
 10
12.8611
 20
8.5712
 30
0
 70
     0
  0
VERTEX
  8
LAYER1
 10
12.7917
 20
8.5156
 30
0
 70
     0
  0
VERTEX
  8
LAYER1
 10
12.7083
 20
8.4601
 30
0
 70
     0
  0
VERTEX
  8
LAYER1
 10
12.6389
 20
8.4184
 30
0
 70
     0
  0
VERTEX
  8
LAYER1
 10
12.5556
 20
8.3906
 30
0
 70
     0
  0
VERTEX
  8
LAYER1
 10
12.4722
 20
8.3628
 30
0
 70
     0
  0
VERTEX
  8
LAYER1
 10
12.3889
 20
8.349
 30
0
 70
     0
  0
VERTEX
  8
LAYER1
 10
12.2917
 20
8.3351
 30
0
 70
     0
  0
VERTEX
  8
LAYER1
 10
12.2361
 20
8.3351
 30
0
 70
     0
  0
VERTEX
  8
LAYER1
 10
12.1944
 20
8.3351
 30
0
 70
     0
  0
VERTEX
  8
LAYER1
 10
12.0972
 20
8.349
 30
0
 70
     0
  0
VERTEX
  8
LAYER1
 10
12
 20
8.3628
 30
0
 70
     0
  0
VERTEX
  8
LAYER1
 10
11.9167
 20
8.3906
 30
0
 70
     0
  0
VERTEX
  8
LAYER1
 10
11.8472
 20
8.4184
 30
0
 70
     0
  0
VERTEX
  8
LAYER1
 10
11.7778
 20
8.4601
 30
0
 70
     0
  0
VERTEX
  8
LAYER1
 10
11.6944
 20
8.5156
 30
0
 70
     0
  0
VERTEX
  8
LAYER1
 10
11.625
 20
8.5712
 30
0
 70
     0
  0
VERTEX
  8
LAYER1
 10
11.5833
 20
8.6128
 30
0
 70
     0
  0
VERTEX
  8
LAYER1
 10
11.5556
 20
8.6406
 30
0
 70
     0
  0
VERTEX
  8
LAYER1
 10
11.4861
 20
8.724
 30
0
 70
     0
  0
VERTEX
  8
LAYER1
 10
11.4444
 20
8.7795
 30
0
 70
     0
  0
VERTEX
  8
LAYER1
 10
11.4028
 20
8.8628
 30
0
 70
     0
  0
VERTEX
  8
LAYER1
 10
11.375
 20
8.9462
 30
0
 70
     0
  0
VERTEX
  8
LAYER1
 10
11.3472
 20
9.0295
 30
0
 70
     0
  0
VERTEX
  8
LAYER1
 10
11.3333
 20
9.1128
 30
0
 70
     0
  0
VERTEX
  8
LAYER1
 10
11.3194
 20
9.2101
 30
0
 70
     0
  0
VERTEX
  8
LAYER1
 10
11.3194
 20
9.2656
 30
0
 70
     0
  0
VERTEX
  8
LAYER1
 10
11.3194
 20
9.3073
 30
0
 70
     0
  0
VERTEX
  8
LAYER1
 10
11.3333
 20
9.4045
 30
0
 70
     0
  0
VERTEX
  8
LAYER1
 10
11.3472
 20
9.5017
 30
0
 70
     0
  0
VERTEX
  8
LAYER1
 10
11.375
 20
9.5851
 30
0
 70
     0
  0
VERTEX
  8
LAYER1
 10
11.4028
 20
9.6684
 30
0
 70
     0
  0
VERTEX
  8
LAYER1
 10
11.4444
 20
9.7378
 30
0
 70
     0
  0
VERTEX
  8
LAYER1
 10
11.4861
 20
9.8073
 30
0
 70
     0
  0
VERTEX
  8
LAYER1
 10
11.5556
 20
9.8906
 30
0
 70
     0
  0
VERTEX
  8
LAYER1
 10
11.5833
 20
9.9184
 30
0
 70
     0
  0
VERTEX
  8
LAYER1
 10
11.6111
 20
9.9462
 30
0
 70
     0
  0
VERTEX
  8
LAYER1
 10
11.6944
 20
10.0156
 30
0
 70
     0
  0
VERTEX
  8
LAYER1
 10
11.7639
 20
10.0573
 30
0
 70
     0
  0
VERTEX
  8
LAYER1
 10
11.8333
 20
10.099
 30
0
 70
     0
  0
VERTEX
  8
LAYER1
 10
11.9167
 20
10.1267
 30
0
 70
     0
  0
VERTEX
  8
LAYER1
 10
12
 20
10.1545
 30
0
 70
     0
  0
VERTEX
  8
LAYER1
 10
12.0972
 20
10.1684
 30
0
 70
     0
  0
VERTEX
  8
LAYER1
 10
12.1944
 20
10.1823
 30
0
 70
     0
  0
VERTEX
  8
LAYER1
 10
12.2361
 20
10.1823
 30
0
 70
     0
  0
VERTEX
  8
LAYER1
 10
12.2917
 20
10.1823
 30
0
 70
     0
  0
VERTEX
  8
LAYER1
 10
12.3889
 20
10.1684
 30
0
 70
     0
  0
VERTEX
  8
LAYER1
 10
12.4722
 20
10.1545
 30
0
 70
     0
  0
VERTEX
  8
LAYER1
 10
12.5556
 20
10.1267
 30
0
 70
     0
  0
VERTEX
  8
LAYER1
 10
12.6389
 20
10.099
 30
0
 70
     0
  0
VERTEX
  8
LAYER1
 10
12.7222
 20
10.0573
 30
0
 70
     0
  0
VERTEX
  8
LAYER1
 10
12.7917
 20
10.0156
 30
0
 70
     0
  0
VERTEX
  8
LAYER1
 10
12.875
 20
9.9462
 30
0
 70
     0
  0
VERTEX
  8
LAYER1
 10
12.9028
 20
9.9184
 30
0
 70
     0
  0
VERTEX
  8
LAYER1
 10
12.9306
 20
9.8906
 30
0
 70
     0
  0
VERTEX
  8
LAYER1
 10
12.9861
 20
9.8212
 30
0
 70
     0
  0
VERTEX
  8
LAYER1
 10
13.0417
 20
9.7378
 30
0
 70
     0
  0
VERTEX
  8
LAYER1
 10
13.0833
 20
9.6684
 30
0
 70
     0
  0
VERTEX
  8
LAYER1
 10
13.1111
 20
9.5851
 30
0
 70
     0
  0
VERTEX
  8
LAYER1
 10
13.1389
 20
9.5017
 30
0
 70
     0
  0
VERTEX
  8
LAYER1
 10
13.1528
 20
9.4323
 30
0
 70
     0
  0
VERTEX
  8
LAYER1
 10
13.1667
 20
9.3351
 30
0
 70
     0
  0
VERTEX
  8
LAYER1
 10
13.1667
 20
9.2934
 30
0
 70
     0
  0
SEQEND
  0
POLYLINE
  8
LAYER1
  6
CONTINUOUS
 62
     7
 66
     1
 70
     0
 40
0.0039
 41
0.0039
  0
VERTEX
  8
LAYER1
 10
12.8194
 20
9.224
 30
0
 70
     0
  0
VERTEX
  8
LAYER1
 10
12.8194
 20
9.2101
 30
0
 70
     0
  0
VERTEX
  8
LAYER1
 10
12.8056
 20
9.1406
 30
0
 70
     0
  0
VERTEX
  8
LAYER1
 10
12.7917
 20
9.099
 30
0
 70
     0
  0
VERTEX
  8
LAYER1
 10
12.7778
 20
9.0434
 30
0
 70
     0
  0
VERTEX
  8
LAYER1
 10
12.7639
 20
9.0156
 30
0
 70
     0
  0
VERTEX
  8
LAYER1
 10
12.7361
 20
8.974
 30
0
 70
     0
  0
VERTEX
  8
LAYER1
 10
12.7083
 20
8.9323
 30
0
 70
     0
  0
VERTEX
  8
LAYER1
 10
12.6667
 20
8.8767
 30
0
 70
     0
  0
VERTEX
  8
LAYER1
 10
12.6528
 20
8.8628
 30
0
 70
     0
  0
VERTEX
  8
LAYER1
 10
12.625
 20
8.8351
 30
0
 70
     0
  0
VERTEX
  8
LAYER1
 10
12.5972
 20
8.8073
 30
0
 70
     0
  0
VERTEX
  8
LAYER1
 10
12.5417
 20
8.7795
 30
0
 70
     0
  0
VERTEX
  8
LAYER1
 10
12.5
 20
8.7517
 30
0
 70
     0
  0
VERTEX
  8
LAYER1
 10
12.4306
 20
8.724
 30
0
 70
     0
  0
VERTEX
  8
LAYER1
 10
12.375
 20
8.7101
 30
0
 70
     0
  0
VERTEX
  8
LAYER1
 10
12.3194
 20
8.6962
 30
0
 70
     0
  0
VERTEX
  8
LAYER1
 10
12.2639
 20
8.6962
 30
0
 70
     0
  0
VERTEX
  8
LAYER1
 10
12.2361
 20
8.6962
 30
0
 70
     0
  0
VERTEX
  8
LAYER1
 10
12.2083
 20
8.6962
 30
0
 70
     0
  0
VERTEX
  8
LAYER1
 10
12.1528
 20
8.6962
 30
0
 70
     0
  0
VERTEX
  8
LAYER1
 10
12.0972
 20
8.7101
 30
0
 70
     0
  0
VERTEX
  8
LAYER1
 10
12.0556
 20
8.724
 30
0
 70
     0
  0
VERTEX
  8
LAYER1
 10
11.9861
 20
8.7517
 30
0
 70
     0
  0
VERTEX
  8
LAYER1
 10
11.9306
 20
8.7795
 30
0
 70
     0
  0
VERTEX
  8
LAYER1
 10
11.8889
 20
8.8073
 30
0
 70
     0
  0
VERTEX
  8
LAYER1
 10
11.8611
 20
8.8351
 30
0
 70
     0
  0
VERTEX
  8
LAYER1
 10
11.8333
 20
8.8628
 30
0
 70
     0
  0
VERTEX
  8
LAYER1
 10
11.8194
 20
8.8767
 30
0
 70
     0
  0
VERTEX
  8
LAYER1
 10
11.7778
 20
8.9184
 30
0
 70
     0
  0
VERTEX
  8
LAYER1
 10
11.75
 20
8.9601
 30
0
 70
     0
  0
VERTEX
  8
LAYER1
 10
11.7222
 20
9.0156
 30
0
 70
     0
  0
VERTEX
  8
LAYER1
 10
11.6944
 20
9.0851
 30
0
 70
     0
  0
VERTEX
  8
LAYER1
 10
11.6806
 20
9.1267
 30
0
 70
     0
  0
VERTEX
  8
LAYER1
 10
11.6667
 20
9.1823
 30
0
 70
     0
  0
VERTEX
  8
LAYER1
 10
11.6667
 20
9.2378
 30
0
 70
     0
  0
VERTEX
  8
LAYER1
 10
11.6667
 20
9.2656
 30
0
 70
     0
  0
VERTEX
  8
LAYER1
 10
11.6667
 20
9.2934
 30
0
 70
     0
  0
VERTEX
  8
LAYER1
 10
11.6667
 20
9.349
 30
0
 70
     0
  0
VERTEX
  8
LAYER1
 10
11.6806
 20
9.4045
 30
0
 70
     0
  0
VERTEX
  8
LAYER1
 10
11.6944
 20
9.4462
 30
0
 70
     0
  0
VERTEX
  8
LAYER1
 10
11.7222
 20
9.5156
 30
0
 70
     0
  0
VERTEX
  8
LAYER1
 10
11.75
 20
9.5712
 30
0
 70
     0
  0
VERTEX
  8
LAYER1
 10
11.7778
 20
9.6128
 30
0
 70
     0
  0
VERTEX
  8
LAYER1
 10
11.8194
 20
9.6545
 30
0
 70
     0
  0
VERTEX
  8
LAYER1
 10
11.8333
 20
9.6684
 30
0
 70
     0
  0
VERTEX
  8
LAYER1
 10
11.8472
 20
9.6823
 30
0
 70
     0
  0
VERTEX
  8
LAYER1
 10
11.8889
 20
9.724
 30
0
 70
     0
  0
VERTEX
  8
LAYER1
 10
11.9306
 20
9.7517
 30
0
 70
     0
  0
VERTEX
  8
LAYER1
 10
11.9861
 20
9.7795
 30
0
 70
     0
  0
VERTEX
  8
LAYER1
 10
12.0556
 20
9.8073
 30
0
 70
     0
  0
VERTEX
  8
LAYER1
 10
12.0972
 20
9.8212
 30
0
 70
     0
  0
VERTEX
  8
LAYER1
 10
12.1528
 20
9.8351
 30
0
 70
     0
  0
VERTEX
  8
LAYER1
 10
12.2083
 20
9.8351
 30
0
 70
     0
  0
VERTEX
  8
LAYER1
 10
12.2361
 20
9.8351
 30
0
 70
     0
  0
VERTEX
  8
LAYER1
 10
12.2639
 20
9.8351
 30
0
 70
     0
  0
VERTEX
  8
LAYER1
 10
12.3194
 20
9.8351
 30
0
 70
     0
  0
VERTEX
  8
LAYER1
 10
12.375
 20
9.8212
 30
0
 70
     0
  0
VERTEX
  8
LAYER1
 10
12.4306
 20
9.8073
 30
0
 70
     0
  0
VERTEX
  8
LAYER1
 10
12.5
 20
9.7795
 30
0
 70
     0
  0
VERTEX
  8
LAYER1
 10
12.5417
 20
9.7517
 30
0
 70
     0
  0
VERTEX
  8
LAYER1
 10
12.5972
 20
9.724
 30
0
 70
     0
  0
VERTEX
  8
LAYER1
 10
12.6389
 20
9.6823
 30
0
 70
     0
  0
VERTEX
  8
LAYER1
 10
12.6528
 20
9.6684
 30
0
 70
     0
  0
VERTEX
  8
LAYER1
 10
12.6667
 20
9.6545
 30
0
 70
     0
  0
VERTEX
  8
LAYER1
 10
12.7083
 20
9.599
 30
0
 70
     0
  0
VERTEX
  8
LAYER1
 10
12.7361
 20
9.5573
 30
0
 70
     0
  0
VERTEX
  8
LAYER1
 10
12.7639
 20
9.5156
 30
0
 70
     0
  0
VERTEX
  8
LAYER1
 10
12.7778
 20
9.4878
 30
0
 70
     0
  0
VERTEX
  8
LAYER1
 10
12.7917
 20
9.4323
 30
0
 70
     0
  0
VERTEX
  8
LAYER1
 10
12.8056
 20
9.3767
 30
0
 70
     0
  0
VERTEX
  8
LAYER1
 10
12.8194
 20
9.3212
 30
0
 70
     0
  0
VERTEX
  8
LAYER1
 10
12.8194
 20
9.2934
 30
0
 70
     0
  0
SEQEND
  0
LINE
  8
LAYER1
  6
CONTINUOUS
 62
     7
 10
12.8194
 20
9.2934
 30
0
 11
13.1667
 21
9.2934
 31
0
  0
ENDBLK
  8
LAYER1
  0
BLOCK
  8
LAYER1
  2
Group17
 70
     0
 10
0
 20
0
 30
0
  0
LINE
  8
LAYER1
  6
CONTINUOUS
 62
     7
 10
12.8194
 20
9.224
 30
0
 11
13.1667
 21
9.224
 31
0
  0
POLYLINE
  8
LAYER1
  6
CONTINUOUS
 62
     7
 66
     1
 70
     0
 40
0.0039
 41
0.0039
  0
VERTEX
  8
LAYER1
 10
19.2917
 20
2.6823
 30
0
 70
     0
  0
VERTEX
  8
LAYER1
 10
19.2917
 20
2.6406
 30
0
 70
     0
  0
VERTEX
  8
LAYER1
 10
19.2778
 20
2.5295
 30
0
 70
     0
  0
VERTEX
  8
LAYER1
 10
19.2639
 20
2.4462
 30
0
 70
     0
  0
VERTEX
  8
LAYER1
 10
19.2222
 20
2.349
 30
0
 70
     0
  0
VERTEX
  8
LAYER1
 10
19.1944
 20
2.2656
 30
0
 70
     0
  0
VERTEX
  8
LAYER1
 10
19.1389
 20
2.1684
 30
0
 70
     0
  0
VERTEX
  8
LAYER1
 10
19.0833
 20
2.099
 30
0
 70
     0
  0
VERTEX
  8
LAYER1
 10
19.0278
 20
2.0295
 30
0
 70
     0
  0
VERTEX
  8
LAYER1
 10
18.9861
 20
1.9878
 30
0
 70
     0
  0
VERTEX
  8
LAYER1
 10
18.9444
 20
1.9462
 30
0
 70
     0
  0
VERTEX
  8
LAYER1
 10
18.8611
 20
1.8767
 30
0
 70
     0
  0
VERTEX
  8
LAYER1
 10
18.7778
 20
1.8212
 30
0
 70
     0
  0
VERTEX
  8
LAYER1
 10
18.7083
 20
1.7795
 30
0
 70
     0
  0
VERTEX
  8
LAYER1
 10
18.6111
 20
1.7378
 30
0
 70
     0
  0
VERTEX
  8
LAYER1
 10
18.5139
 20
1.7101
 30
0
 70
     0
  0
VERTEX
  8
LAYER1
 10
18.4306
 20
1.6962
 30
0
 70
     0
  0
VERTEX
  8
LAYER1
 10
18.3194
 20
1.6823
 30
0
 70
     0
  0
VERTEX
  8
LAYER1
 10
18.2639
 20
1.6823
 30
0
 70
     0
  0
VERTEX
  8
LAYER1
 10
18.2083
 20
1.6823
 30
0
 70
     0
  0
VERTEX
  8
LAYER1
 10
18.1111
 20
1.6962
 30
0
 70
     0
  0
VERTEX
  8
LAYER1
 10
18.0139
 20
1.7101
 30
0
 70
     0
  0
VERTEX
  8
LAYER1
 10
17.9306
 20
1.7378
 30
0
 70
     0
  0
VERTEX
  8
LAYER1
 10
17.8194
 20
1.7795
 30
0
 70
     0
  0
VERTEX
  8
LAYER1
 10
17.75
 20
1.8212
 30
0
 70
     0
  0
VERTEX
  8
LAYER1
 10
17.6667
 20
1.8767
 30
0
 70
     0
  0
VERTEX
  8
LAYER1
 10
17.5833
 20
1.9462
 30
0
 70
     0
  0
VERTEX
  8
LAYER1
 10
17.5417
 20
1.9878
 30
0
 70
     0
  0
VERTEX
  8
LAYER1
 10
17.5
 20
2.0295
 30
0
 70
     0
  0
VERTEX
  8
LAYER1
 10
17.4444
 20
2.099
 30
0
 70
     0
  0
VERTEX
  8
LAYER1
 10
17.3889
 20
2.1823
 30
0
 70
     0
  0
VERTEX
  8
LAYER1
 10
17.3472
 20
2.2656
 30
0
 70
     0
  0
VERTEX
  8
LAYER1
 10
17.3056
 20
2.349
 30
0
 70
     0
  0
VERTEX
  8
LAYER1
 10
17.2778
 20
2.4462
 30
0
 70
     0
  0
VERTEX
  8
LAYER1
 10
17.2639
 20
2.5434
 30
0
 70
     0
  0
VERTEX
  8
LAYER1
 10
17.25
 20
2.6545
 30
0
 70
     0
  0
VERTEX
  8
LAYER1
 10
17.25
 20
2.7101
 30
0
 70
     0
  0
VERTEX
  8
LAYER1
 10
17.25
 20
2.7656
 30
0
 70
     0
  0
VERTEX
  8
LAYER1
 10
17.2639
 20
2.8628
 30
0
 70
     0
  0
VERTEX
  8
LAYER1
 10
17.2778
 20
2.9601
 30
0
 70
     0
  0
VERTEX
  8
LAYER1
 10
17.3056
 20
3.0573
 30
0
 70
     0
  0
VERTEX
  8
LAYER1
 10
17.3472
 20
3.1545
 30
0
 70
     0
  0
VERTEX
  8
LAYER1
 10
17.3889
 20
3.2378
 30
0
 70
     0
  0
VERTEX
  8
LAYER1
 10
17.4444
 20
3.3212
 30
0
 70
     0
  0
VERTEX
  8
LAYER1
 10
17.5
 20
3.3906
 30
0
 70
     0
  0
VERTEX
  8
LAYER1
 10
17.5417
 20
3.4323
 30
0
 70
     0
  0
VERTEX
  8
LAYER1
 10
17.5833
 20
3.474
 30
0
 70
     0
  0
VERTEX
  8
LAYER1
 10
17.6667
 20
3.5434
 30
0
 70
     0
  0
VERTEX
  8
LAYER1
 10
17.75
 20
3.599
 30
0
 70
     0
  0
VERTEX
  8
LAYER1
 10
17.8194
 20
3.6406
 30
0
 70
     0
  0
VERTEX
  8
LAYER1
 10
17.9306
 20
3.6823
 30
0
 70
     0
  0
VERTEX
  8
LAYER1
 10
18.0139
 20
3.7101
 30
0
 70
     0
  0
VERTEX
  8
LAYER1
 10
18.1111
 20
3.724
 30
0
 70
     0
  0
VERTEX
  8
LAYER1
 10
18.2083
 20
3.7378
 30
0
 70
     0
  0
VERTEX
  8
LAYER1
 10
18.2639
 20
3.7378
 30
0
 70
     0
  0
VERTEX
  8
LAYER1
 10
18.3194
 20
3.7378
 30
0
 70
     0
  0
VERTEX
  8
LAYER1
 10
18.4306
 20
3.724
 30
0
 70
     0
  0
VERTEX
  8
LAYER1
 10
18.5139
 20
3.7101
 30
0
 70
     0
  0
VERTEX
  8
LAYER1
 10
18.6111
 20
3.6823
 30
0
 70
     0
  0
VERTEX
  8
LAYER1
 10
18.7083
 20
3.6406
 30
0
 70
     0
  0
VERTEX
  8
LAYER1
 10
18.7778
 20
3.599
 30
0
 70
     0
  0
VERTEX
  8
LAYER1
 10
18.8611
 20
3.5434
 30
0
 70
     0
  0
VERTEX
  8
LAYER1
 10
18.9444
 20
3.474
 30
0
 70
     0
  0
VERTEX
  8
LAYER1
 10
18.9861
 20
3.4323
 30
0
 70
     0
  0
VERTEX
  8
LAYER1
 10
19.0278
 20
3.3906
 30
0
 70
     0
  0
VERTEX
  8
LAYER1
 10
19.0833
 20
3.3212
 30
0
 70
     0
  0
VERTEX
  8
LAYER1
 10
19.1389
 20
3.2517
 30
0
 70
     0
  0
VERTEX
  8
LAYER1
 10
19.1944
 20
3.1545
 30
0
 70
     0
  0
VERTEX
  8
LAYER1
 10
19.2222
 20
3.0712
 30
0
 70
     0
  0
VERTEX
  8
LAYER1
 10
19.2639
 20
2.974
 30
0
 70
     0
  0
VERTEX
  8
LAYER1
 10
19.2778
 20
2.8906
 30
0
 70
     0
  0
VERTEX
  8
LAYER1
 10
19.2917
 20
2.7795
 30
0
 70
     0
  0
VERTEX
  8
LAYER1
 10
19.2917
 20
2.7378
 30
0
 70
     0
  0
SEQEND
  0
POLYLINE
  8
LAYER1
  6
CONTINUOUS
 62
     7
 66
     1
 70
     0
 40
0.0039
 41
0.0039
  0
VERTEX
  8
LAYER1
 10
18.9028
 20
2.6823
 30
0
 70
     0
  0
VERTEX
  8
LAYER1
 10
18.9028
 20
2.6545
 30
0
 70
     0
  0
VERTEX
  8
LAYER1
 10
18.8889
 20
2.5851
 30
0
 70
     0
  0
VERTEX
  8
LAYER1
 10
18.875
 20
2.5295
 30
0
 70
     0
  0
VERTEX
  8
LAYER1
 10
18.8611
 20
2.4878
 30
0
 70
     0
  0
VERTEX
  8
LAYER1
 10
18.8333
 20
2.4184
 30
0
 70
     0
  0
VERTEX
  8
LAYER1
 10
18.8056
 20
2.3767
 30
0
 70
     0
  0
VERTEX
  8
LAYER1
 10
18.7778
 20
2.3351
 30
0
 70
     0
  0
VERTEX
  8
LAYER1
 10
18.7361
 20
2.2934
 30
0
 70
     0
  0
VERTEX
  8
LAYER1
 10
18.7083
 20
2.2656
 30
0
 70
     0
  0
VERTEX
  8
LAYER1
 10
18.6806
 20
2.2378
 30
0
 70
     0
  0
VERTEX
  8
LAYER1
 10
18.625
 20
2.1962
 30
0
 70
     0
  0
VERTEX
  8
LAYER1
 10
18.5972
 20
2.1684
 30
0
 70
     0
  0
VERTEX
  8
LAYER1
 10
18.5278
 20
2.1267
 30
0
 70
     0
  0
VERTEX
  8
LAYER1
 10
18.4861
 20
2.1128
 30
0
 70
     0
  0
VERTEX
  8
LAYER1
 10
18.4167
 20
2.0851
 30
0
 70
     0
  0
VERTEX
  8
LAYER1
 10
18.3472
 20
2.0712
 30
0
 70
     0
  0
VERTEX
  8
LAYER1
 10
18.2917
 20
2.0712
 30
0
 70
     0
  0
VERTEX
  8
LAYER1
 10
18.2639
 20
2.0712
 30
0
 70
     0
  0
VERTEX
  8
LAYER1
 10
18.2361
 20
2.0712
 30
0
 70
     0
  0
VERTEX
  8
LAYER1
 10
18.1806
 20
2.0712
 30
0
 70
     0
  0
VERTEX
  8
LAYER1
 10
18.1111
 20
2.0851
 30
0
 70
     0
  0
VERTEX
  8
LAYER1
 10
18.0417
 20
2.1128
 30
0
 70
     0
  0
VERTEX
  8
LAYER1
 10
18
 20
2.1267
 30
0
 70
     0
  0
VERTEX
  8
LAYER1
 10
17.9306
 20
2.1684
 30
0
 70
     0
  0
VERTEX
  8
LAYER1
 10
17.9028
 20
2.1962
 30
0
 70
     0
  0
VERTEX
  8
LAYER1
 10
17.8472
 20
2.2378
 30
0
 70
     0
  0
VERTEX
  8
LAYER1
 10
17.8194
 20
2.2656
 30
0
 70
     0
  0
VERTEX
  8
LAYER1
 10
17.7917
 20
2.2934
 30
0
 70
     0
  0
VERTEX
  8
LAYER1
 10
17.75
 20
2.349
 30
0
 70
     0
  0
VERTEX
  8
LAYER1
 10
17.7222
 20
2.3767
 30
0
 70
     0
  0
VERTEX
  8
LAYER1
 10
17.6806
 20
2.4462
 30
0
 70
     0
  0
VERTEX
  8
LAYER1
 10
17.6667
 20
2.4878
 30
0
 70
     0
  0
VERTEX
  8
LAYER1
 10
17.6389
 20
2.5573
 30
0
 70
     0
  0
VERTEX
  8
LAYER1
 10
17.625
 20
2.6267
 30
0
 70
     0
  0
VERTEX
  8
LAYER1
 10
17.625
 20
2.6823
 30
0
 70
     0
  0
VERTEX
  8
LAYER1
 10
17.625
 20
2.7101
 30
0
 70
     0
  0
VERTEX
  8
LAYER1
 10
17.625
 20
2.7378
 30
0
 70
     0
  0
VERTEX
  8
LAYER1
 10
17.625
 20
2.7934
 30
0
 70
     0
  0
VERTEX
  8
LAYER1
 10
17.6389
 20
2.8628
 30
0
 70
     0
  0
VERTEX
  8
LAYER1
 10
17.6667
 20
2.9323
 30
0
 70
     0
  0
VERTEX
  8
LAYER1
 10
17.6806
 20
2.974
 30
0
 70
     0
  0
VERTEX
  8
LAYER1
 10
17.7222
 20
3.0434
 30
0
 70
     0
  0
VERTEX
  8
LAYER1
 10
17.75
 20
3.0712
 30
0
 70
     0
  0
VERTEX
  8
LAYER1
 10
17.7917
 20
3.1267
 30
0
 70
     0
  0
VERTEX
  8
LAYER1
 10
17.8194
 20
3.1545
 30
0
 70
     0
  0
VERTEX
  8
LAYER1
 10
17.8472
 20
3.1823
 30
0
 70
     0
  0
VERTEX
  8
LAYER1
 10
17.9028
 20
3.224
 30
0
 70
     0
  0
VERTEX
  8
LAYER1
 10
17.9306
 20
3.2517
 30
0
 70
     0
  0
VERTEX
  8
LAYER1
 10
18
 20
3.2934
 30
0
 70
     0
  0
VERTEX
  8
LAYER1
 10
18.0417
 20
3.3073
 30
0
 70
     0
  0
VERTEX
  8
LAYER1
 10
18.1111
 20
3.3351
 30
0
 70
     0
  0
VERTEX
  8
LAYER1
 10
18.1806
 20
3.349
 30
0
 70
     0
  0
VERTEX
  8
LAYER1
 10
18.2361
 20
3.349
 30
0
 70
     0
  0
VERTEX
  8
LAYER1
 10
18.2639
 20
3.349
 30
0
 70
     0
  0
VERTEX
  8
LAYER1
 10
18.2917
 20
3.349
 30
0
 70
     0
  0
VERTEX
  8
LAYER1
 10
18.3472
 20
3.349
 30
0
 70
     0
  0
VERTEX
  8
LAYER1
 10
18.4167
 20
3.3351
 30
0
 70
     0
  0
VERTEX
  8
LAYER1
 10
18.4861
 20
3.3073
 30
0
 70
     0
  0
VERTEX
  8
LAYER1
 10
18.5278
 20
3.2934
 30
0
 70
     0
  0
VERTEX
  8
LAYER1
 10
18.5972
 20
3.2517
 30
0
 70
     0
  0
VERTEX
  8
LAYER1
 10
18.625
 20
3.224
 30
0
 70
     0
  0
VERTEX
  8
LAYER1
 10
18.6806
 20
3.1823
 30
0
 70
     0
  0
VERTEX
  8
LAYER1
 10
18.7083
 20
3.1545
 30
0
 70
     0
  0
VERTEX
  8
LAYER1
 10
18.7361
 20
3.1267
 30
0
 70
     0
  0
VERTEX
  8
LAYER1
 10
18.7778
 20
3.0851
 30
0
 70
     0
  0
VERTEX
  8
LAYER1
 10
18.8056
 20
3.0434
 30
0
 70
     0
  0
VERTEX
  8
LAYER1
 10
18.8333
 20
3.0017
 30
0
 70
     0
  0
VERTEX
  8
LAYER1
 10
18.8611
 20
2.9323
 30
0
 70
     0
  0
VERTEX
  8
LAYER1
 10
18.875
 20
2.8906
 30
0
 70
     0
  0
VERTEX
  8
LAYER1
 10
18.8889
 20
2.8351
 30
0
 70
     0
  0
VERTEX
  8
LAYER1
 10
18.9028
 20
2.7656
 30
0
 70
     0
  0
VERTEX
  8
LAYER1
 10
18.9028
 20
2.7378
 30
0
 70
     0
  0
SEQEND
  0
LINE
  8
LAYER1
  6
CONTINUOUS
 62
     7
 10
18.9028
 20
2.7378
 30
0
 11
19.2917
 21
2.7378
 31
0
  0
ENDBLK
  8
LAYER1
  0
BLOCK
  8
LAYER1
  2
Group18
 70
     0
 10
0
 20
0
 30
0
  0
LINE
  8
LAYER1
  6
CONTINUOUS
 62
     7
 10
18.9028
 20
2.6823
 30
0
 11
19.2917
 21
2.6823
 31
0
  0
POLYLINE
  8
LAYER1
  6
CONTINUOUS
 62
     7
 66
     1
 70
     0
 40
0.0039
 41
0.0039
  0
VERTEX
  8
LAYER1
 10
12.0694
 20
5.7517
 30
0
 70
     0
  0
VERTEX
  8
LAYER1
 10
12.0694
 20
5.6962
 30
0
 70
     0
  0
VERTEX
  8
LAYER1
 10
12.0556
 20
5.599
 30
0
 70
     0
  0
VERTEX
  8
LAYER1
 10
12.0278
 20
5.474
 30
0
 70
     0
  0
VERTEX
  8
LAYER1
 10
12
 20
5.3906
 30
0
 70
     0
  0
VERTEX
  8
LAYER1
 10
11.9583
 20
5.2934
 30
0
 70
     0
  0
VERTEX
  8
LAYER1
 10
11.9028
 20
5.1962
 30
0
 70
     0
  0
VERTEX
  8
LAYER1
 10
11.8472
 20
5.1128
 30
0
 70
     0
  0
VERTEX
  8
LAYER1
 10
11.7778
 20
5.0295
 30
0
 70
     0
  0
VERTEX
  8
LAYER1
 10
11.7361
 20
4.9878
 30
0
 70
     0
  0
VERTEX
  8
LAYER1
 10
11.6944
 20
4.9462
 30
0
 70
     0
  0
VERTEX
  8
LAYER1
 10
11.625
 20
4.8767
 30
0
 70
     0
  0
VERTEX
  8
LAYER1
 10
11.5139
 20
4.8073
 30
0
 70
     0
  0
VERTEX
  8
LAYER1
 10
11.4167
 20
4.7517
 30
0
 70
     0
  0
VERTEX
  8
LAYER1
 10
11.3194
 20
4.7101
 30
0
 70
     0
  0
VERTEX
  8
LAYER1
 10
11.2222
 20
4.6823
 30
0
 70
     0
  0
VERTEX
  8
LAYER1
 10
11.125
 20
4.6684
 30
0
 70
     0
  0
VERTEX
  8
LAYER1
 10
11
 20
4.6545
 30
0
 70
     0
  0
VERTEX
  8
LAYER1
 10
10.9444
 20
4.6545
 30
0
 70
     0
  0
VERTEX
  8
LAYER1
 10
10.8889
 20
4.6545
 30
0
 70
     0
  0
VERTEX
  8
LAYER1
 10
10.7639
 20
4.6684
 30
0
 70
     0
  0
VERTEX
  8
LAYER1
 10
10.6806
 20
4.6823
 30
0
 70
     0
  0
VERTEX
  8
LAYER1
 10
10.5694
 20
4.7101
 30
0
 70
     0
  0
VERTEX
  8
LAYER1
 10
10.4722
 20
4.7517
 30
0
 70
     0
  0
VERTEX
  8
LAYER1
 10
10.375
 20
4.8073
 30
0
 70
     0
  0
VERTEX
  8
LAYER1
 10
10.2778
 20
4.8767
 30
0
 70
     0
  0
VERTEX
  8
LAYER1
 10
10.1944
 20
4.9462
 30
0
 70
     0
  0
VERTEX
  8
LAYER1
 10
10.1528
 20
4.9878
 30
0
 70
     0
  0
VERTEX
  8
LAYER1
 10
10.1111
 20
5.0295
 30
0
 70
     0
  0
VERTEX
  8
LAYER1
 10
10.0417
 20
5.1128
 30
0
 70
     0
  0
VERTEX
  8
LAYER1
 10
9.9861
 20
5.1962
 30
0
 70
     0
  0
VERTEX
  8
LAYER1
 10
9.9306
 20
5.3073
 30
0
 70
     0
  0
VERTEX
  8
LAYER1
 10
9.8889
 20
5.4045
 30
0
 70
     0
  0
VERTEX
  8
LAYER1
 10
9.8611
 20
5.5017
 30
0
 70
     0
  0
VERTEX
  8
LAYER1
 10
9.8472
 20
5.599
 30
0
 70
     0
  0
VERTEX
  8
LAYER1
 10
9.8333
 20
5.724
 30
0
 70
     0
  0
VERTEX
  8
LAYER1
 10
9.8333
 20
5.7795
 30
0
 70
     0
  0
VERTEX
  8
LAYER1
 10
9.8333
 20
5.8351
 30
0
 70
     0
  0
VERTEX
  8
LAYER1
 10
9.8472
 20
5.9601
 30
0
 70
     0
  0
VERTEX
  8
LAYER1
 10
9.8611
 20
6.0434
 30
0
 70
     0
  0
VERTEX
  8
LAYER1
 10
9.8889
 20
6.1545
 30
0
 70
     0
  0
VERTEX
  8
LAYER1
 10
9.9306
 20
6.2517
 30
0
 70
     0
  0
VERTEX
  8
LAYER1
 10
9.9861
 20
6.3628
 30
0
 70
     0
  0
VERTEX
  8
LAYER1
 10
10.0417
 20
6.4323
 30
0
 70
     0
  0
VERTEX
  8
LAYER1
 10
10.1111
 20
6.5295
 30
0
 70
     0
  0
VERTEX
  8
LAYER1
 10
10.1528
 20
6.5712
 30
0
 70
     0
  0
VERTEX
  8
LAYER1
 10
10.1944
 20
6.6128
 30
0
 70
     0
  0
VERTEX
  8
LAYER1
 10
10.2917
 20
6.6823
 30
0
 70
     0
  0
VERTEX
  8
LAYER1
 10
10.3611
 20
6.7378
 30
0
 70
     0
  0
VERTEX
  8
LAYER1
 10
10.4722
 20
6.7934
 30
0
 70
     0
  0
VERTEX
  8
LAYER1
 10
10.5694
 20
6.8351
 30
0
 70
     0
  0
VERTEX
  8
LAYER1
 10
10.6806
 20
6.8628
 30
0
 70
     0
  0
VERTEX
  8
LAYER1
 10
10.7639
 20
6.8767
 30
0
 70
     0
  0
VERTEX
  8
LAYER1
 10
10.8889
 20
6.8906
 30
0
 70
     0
  0
VERTEX
  8
LAYER1
 10
10.9444
 20
6.8906
 30
0
 70
     0
  0
VERTEX
  8
LAYER1
 10
11
 20
6.8906
 30
0
 70
     0
  0
VERTEX
  8
LAYER1
 10
11.125
 20
6.8767
 30
0
 70
     0
  0
VERTEX
  8
LAYER1
 10
11.2222
 20
6.8628
 30
0
 70
     0
  0
VERTEX
  8
LAYER1
 10
11.3194
 20
6.8351
 30
0
 70
     0
  0
VERTEX
  8
LAYER1
 10
11.4167
 20
6.7934
 30
0
 70
     0
  0
VERTEX
  8
LAYER1
 10
11.5278
 20
6.7378
 30
0
 70
     0
  0
VERTEX
  8
LAYER1
 10
11.6111
 20
6.6823
 30
0
 70
     0
  0
VERTEX
  8
LAYER1
 10
11.6944
 20
6.6128
 30
0
 70
     0
  0
VERTEX
  8
LAYER1
 10
11.7361
 20
6.5712
 30
0
 70
     0
  0
VERTEX
  8
LAYER1
 10
11.7778
 20
6.5295
 30
0
 70
     0
  0
VERTEX
  8
LAYER1
 10
11.8472
 20
6.4462
 30
0
 70
     0
  0
VERTEX
  8
LAYER1
 10
11.9028
 20
6.3628
 30
0
 70
     0
  0
VERTEX
  8
LAYER1
 10
11.9583
 20
6.2656
 30
0
 70
     0
  0
VERTEX
  8
LAYER1
 10
12
 20
6.1684
 30
0
 70
     0
  0
VERTEX
  8
LAYER1
 10
12.0278
 20
6.0851
 30
0
 70
     0
  0
VERTEX
  8
LAYER1
 10
12.0556
 20
5.9601
 30
0
 70
     0
  0
VERTEX
  8
LAYER1
 10
12.0694
 20
5.8628
 30
0
 70
     0
  0
VERTEX
  8
LAYER1
 10
12.0694
 20
5.8073
 30
0
 70
     0
  0
SEQEND
  0
POLYLINE
  8
LAYER1
  6
CONTINUOUS
 62
     7
 66
     1
 70
     0
 40
0.0039
 41
0.0039
  0
VERTEX
  8
LAYER1
 10
11.6389
 20
5.7517
 30
0
 70
     0
  0
VERTEX
  8
LAYER1
 10
11.6389
 20
5.7101
 30
0
 70
     0
  0
VERTEX
  8
LAYER1
 10
11.6389
 20
5.6545
 30
0
 70
     0
  0
VERTEX
  8
LAYER1
 10
11.625
 20
5.599
 30
0
 70
     0
  0
VERTEX
  8
LAYER1
 10
11.5972
 20
5.5156
 30
0
 70
     0
  0
VERTEX
  8
LAYER1
 10
11.5833
 20
5.474
 30
0
 70
     0
  0
VERTEX
  8
LAYER1
 10
11.5417
 20
5.4045
 30
0
 70
     0
  0
VERTEX
  8
LAYER1
 10
11.5139
 20
5.3628
 30
0
 70
     0
  0
VERTEX
  8
LAYER1
 10
11.4722
 20
5.3073
 30
0
 70
     0
  0
VERTEX
  8
LAYER1
 10
11.4444
 20
5.2795
 30
0
 70
     0
  0
VERTEX
  8
LAYER1
 10
11.4167
 20
5.2517
 30
0
 70
     0
  0
VERTEX
  8
LAYER1
 10
11.3611
 20
5.2101
 30
0
 70
     0
  0
VERTEX
  8
LAYER1
 10
11.3194
 20
5.1823
 30
0
 70
     0
  0
VERTEX
  8
LAYER1
 10
11.2361
 20
5.1406
 30
0
 70
     0
  0
VERTEX
  8
LAYER1
 10
11.1944
 20
5.1267
 30
0
 70
     0
  0
VERTEX
  8
LAYER1
 10
11.1111
 20
5.099
 30
0
 70
     0
  0
VERTEX
  8
LAYER1
 10
11.0417
 20
5.0851
 30
0
 70
     0
  0
VERTEX
  8
LAYER1
 10
10.9861
 20
5.0851
 30
0
 70
     0
  0
VERTEX
  8
LAYER1
 10
10.9444
 20
5.0851
 30
0
 70
     0
  0
VERTEX
  8
LAYER1
 10
10.9028
 20
5.0851
 30
0
 70
     0
  0
VERTEX
  8
LAYER1
 10
10.8472
 20
5.0851
 30
0
 70
     0
  0
VERTEX
  8
LAYER1
 10
10.7778
 20
5.099
 30
0
 70
     0
  0
VERTEX
  8
LAYER1
 10
10.6944
 20
5.1267
 30
0
 70
     0
  0
VERTEX
  8
LAYER1
 10
10.6528
 20
5.1406
 30
0
 70
     0
  0
VERTEX
  8
LAYER1
 10
10.5833
 20
5.1823
 30
0
 70
     0
  0
VERTEX
  8
LAYER1
 10
10.5417
 20
5.2101
 30
0
 70
     0
  0
VERTEX
  8
LAYER1
 10
10.4861
 20
5.2517
 30
0
 70
     0
  0
VERTEX
  8
LAYER1
 10
10.4583
 20
5.2795
 30
0
 70
     0
  0
VERTEX
  8
LAYER1
 10
10.4306
 20
5.3073
 30
0
 70
     0
  0
VERTEX
  8
LAYER1
 10
10.3889
 20
5.349
 30
0
 70
     0
  0
VERTEX
  8
LAYER1
 10
10.3472
 20
5.4184
 30
0
 70
     0
  0
VERTEX
  8
LAYER1
 10
10.3194
 20
5.474
 30
0
 70
     0
  0
VERTEX
  8
LAYER1
 10
10.2917
 20
5.5295
 30
0
 70
     0
  0
VERTEX
  8
LAYER1
 10
10.2639
 20
5.6128
 30
0
 70
     0
  0
VERTEX
  8
LAYER1
 10
10.25
 20
5.6823
 30
0
 70
     0
  0
VERTEX
  8
LAYER1
 10
10.25
 20
5.7378
 30
0
 70
     0
  0
VERTEX
  8
LAYER1
 10
10.25
 20
5.7795
 30
0
 70
     0
  0
VERTEX
  8
LAYER1
 10
10.25
 20
5.8212
 30
0
 70
     0
  0
VERTEX
  8
LAYER1
 10
10.25
 20
5.8767
 30
0
 70
     0
  0
VERTEX
  8
LAYER1
 10
10.2639
 20
5.9462
 30
0
 70
     0
  0
VERTEX
  8
LAYER1
 10
10.2917
 20
6.0295
 30
0
 70
     0
  0
VERTEX
  8
LAYER1
 10
10.3194
 20
6.0851
 30
0
 70
     0
  0
VERTEX
  8
LAYER1
 10
10.3472
 20
6.1267
 30
0
 70
     0
  0
VERTEX
  8
LAYER1
 10
10.3889
 20
6.1962
 30
0
 70
     0
  0
VERTEX
  8
LAYER1
 10
10.4306
 20
6.2378
 30
0
 70
     0
  0
VERTEX
  8
LAYER1
 10
10.4583
 20
6.2656
 30
0
 70
     0
  0
VERTEX
  8
LAYER1
 10
10.4861
 20
6.2934
 30
0
 70
     0
  0
VERTEX
  8
LAYER1
 10
10.5278
 20
6.3351
 30
0
 70
     0
  0
VERTEX
  8
LAYER1
 10
10.5972
 20
6.3767
 30
0
 70
     0
  0
VERTEX
  8
LAYER1
 10
10.6389
 20
6.4045
 30
0
 70
     0
  0
VERTEX
  8
LAYER1
 10
10.6944
 20
6.4323
 30
0
 70
     0
  0
VERTEX
  8
LAYER1
 10
10.7778
 20
6.4601
 30
0
 70
     0
  0
VERTEX
  8
LAYER1
 10
10.8472
 20
6.474
 30
0
 70
     0
  0
VERTEX
  8
LAYER1
 10
10.9028
 20
6.474
 30
0
 70
     0
  0
VERTEX
  8
LAYER1
 10
10.9444
 20
6.474
 30
0
 70
     0
  0
VERTEX
  8
LAYER1
 10
10.9861
 20
6.474
 30
0
 70
     0
  0
VERTEX
  8
LAYER1
 10
11.0417
 20
6.474
 30
0
 70
     0
  0
VERTEX
  8
LAYER1
 10
11.1111
 20
6.4601
 30
0
 70
     0
  0
VERTEX
  8
LAYER1
 10
11.1944
 20
6.4323
 30
0
 70
     0
  0
VERTEX
  8
LAYER1
 10
11.25
 20
6.4045
 30
0
 70
     0
  0
VERTEX
  8
LAYER1
 10
11.3056
 20
6.3767
 30
0
 70
     0
  0
VERTEX
  8
LAYER1
 10
11.375
 20
6.3351
 30
0
 70
     0
  0
VERTEX
  8
LAYER1
 10
11.4167
 20
6.2934
 30
0
 70
     0
  0
VERTEX
  8
LAYER1
 10
11.4444
 20
6.2656
 30
0
 70
     0
  0
VERTEX
  8
LAYER1
 10
11.4722
 20
6.2378
 30
0
 70
     0
  0
VERTEX
  8
LAYER1
 10
11.5139
 20
6.1823
 30
0
 70
     0
  0
VERTEX
  8
LAYER1
 10
11.5417
 20
6.1545
 30
0
 70
     0
  0
VERTEX
  8
LAYER1
 10
11.5833
 20
6.0851
 30
0
 70
     0
  0
VERTEX
  8
LAYER1
 10
11.5972
 20
6.0434
 30
0
 70
     0
  0
VERTEX
  8
LAYER1
 10
11.625
 20
5.9601
 30
0
 70
     0
  0
VERTEX
  8
LAYER1
 10
11.6389
 20
5.9045
 30
0
 70
     0
  0
VERTEX
  8
LAYER1
 10
11.6389
 20
5.8351
 30
0
 70
     0
  0
VERTEX
  8
LAYER1
 10
11.6389
 20
5.8073
 30
0
 70
     0
  0
SEQEND
  0
LINE
  8
LAYER1
  6
CONTINUOUS
 62
     7
 10
11.6389
 20
5.8073
 30
0
 11
12.0694
 21
5.8073
 31
0
  0
ENDBLK
  8
LAYER1
  0
BLOCK
  8
LAYER1
  2
Group19
 70
     0
 10
0
 20
0
 30
0
  0
LINE
  8
LAYER1
  6
CONTINUOUS
 62
     7
 10
11.6389
 20
5.7517
 30
0
 11
12.0694
 21
5.7517
 31
0
  0
POLYLINE
  8
LAYER1
  6
CONTINUOUS
 62
     7
 66
     1
 70
     0
 40
0.0039
 41
0.0039
  0
VERTEX
  8
LAYER1
 10
11.9583
 20
2.2517
 30
0
 70
     0
  0
VERTEX
  8
LAYER1
 10
11.9583
 20
2.1962
 30
0
 70
     0
  0
VERTEX
  8
LAYER1
 10
11.9444
 20
2.0851
 30
0
 70
     0
  0
VERTEX
  8
LAYER1
 10
11.9167
 20
1.9601
 30
0
 70
     0
  0
VERTEX
  8
LAYER1
 10
11.8889
 20
1.8628
 30
0
 70
     0
  0
VERTEX
  8
LAYER1
 10
11.8333
 20
1.7378
 30
0
 70
     0
  0
VERTEX
  8
LAYER1
 10
11.7778
 20
1.6406
 30
0
 70
     0
  0
VERTEX
  8
LAYER1
 10
11.7222
 20
1.5573
 30
0
 70
     0
  0
VERTEX
  8
LAYER1
 10
11.6389
 20
1.4601
 30
0
 70
     0
  0
VERTEX
  8
LAYER1
 10
11.5972
 20
1.4184
 30
0
 70
     0
  0
VERTEX
  8
LAYER1
 10
11.5556
 20
1.3767
 30
0
 70
     0
  0
VERTEX
  8
LAYER1
 10
11.4444
 20
1.2934
 30
0
 70
     0
  0
VERTEX
  8
LAYER1
 10
11.3472
 20
1.224
 30
0
 70
     0
  0
VERTEX
  8
LAYER1
 10
11.25
 20
1.1684
 30
0
 70
     0
  0
VERTEX
  8
LAYER1
 10
11.1528
 20
1.1267
 30
0
 70
     0
  0
VERTEX
  8
LAYER1
 10
11.0278
 20
1.0851
 30
0
 70
     0
  0
VERTEX
  8
LAYER1
 10
10.9306
 20
1.0712
 30
0
 70
     0
  0
VERTEX
  8
LAYER1
 10
10.8056
 20
1.0573
 30
0
 70
     0
  0
VERTEX
  8
LAYER1
 10
10.7361
 20
1.0573
 30
0
 70
     0
  0
VERTEX
  8
LAYER1
 10
10.6806
 20
1.0573
 30
0
 70
     0
  0
VERTEX
  8
LAYER1
 10
10.5417
 20
1.0712
 30
0
 70
     0
  0
VERTEX
  8
LAYER1
 10
10.4444
 20
1.0851
 30
0
 70
     0
  0
VERTEX
  8
LAYER1
 10
10.3194
 20
1.1267
 30
0
 70
     0
  0
VERTEX
  8
LAYER1
 10
10.2222
 20
1.1684
 30
0
 70
     0
  0
VERTEX
  8
LAYER1
 10
10.125
 20
1.224
 30
0
 70
     0
  0
VERTEX
  8
LAYER1
 10
10.0278
 20
1.2934
 30
0
 70
     0
  0
VERTEX
  8
LAYER1
 10
9.9167
 20
1.3767
 30
0
 70
     0
  0
VERTEX
  8
LAYER1
 10
9.875
 20
1.4184
 30
0
 70
     0
  0
VERTEX
  8
LAYER1
 10
9.8333
 20
1.4601
 30
0
 70
     0
  0
VERTEX
  8
LAYER1
 10
9.75
 20
1.5712
 30
0
 70
     0
  0
VERTEX
  8
LAYER1
 10
9.6944
 20
1.6545
 30
0
 70
     0
  0
VERTEX
  8
LAYER1
 10
9.6389
 20
1.7517
 30
0
 70
     0
  0
VERTEX
  8
LAYER1
 10
9.5972
 20
1.8628
 30
0
 70
     0
  0
VERTEX
  8
LAYER1
 10
9.5556
 20
1.9878
 30
0
 70
     0
  0
VERTEX
  8
LAYER1
 10
9.5417
 20
2.0851
 30
0
 70
     0
  0
VERTEX
  8
LAYER1
 10
9.5278
 20
2.2101
 30
0
 70
     0
  0
VERTEX
  8
LAYER1
 10
9.5278
 20
2.2795
 30
0
 70
     0
  0
VERTEX
  8
LAYER1
 10
9.5278
 20
2.3351
 30
0
 70
     0
  0
VERTEX
  8
LAYER1
 10
9.5417
 20
2.474
 30
0
 70
     0
  0
VERTEX
  8
LAYER1
 10
9.5556
 20
2.5712
 30
0
 70
     0
  0
VERTEX
  8
LAYER1
 10
9.5972
 20
2.6962
 30
0
 70
     0
  0
VERTEX
  8
LAYER1
 10
9.6389
 20
2.8073
 30
0
 70
     0
  0
VERTEX
  8
LAYER1
 10
9.6944
 20
2.9045
 30
0
 70
     0
  0
VERTEX
  8
LAYER1
 10
9.75
 20
2.9878
 30
0
 70
     0
  0
VERTEX
  8
LAYER1
 10
9.8333
 20
3.099
 30
0
 70
     0
  0
VERTEX
  8
LAYER1
 10
9.875
 20
3.1406
 30
0
 70
     0
  0
VERTEX
  8
LAYER1
 10
9.9167
 20
3.1823
 30
0
 70
     0
  0
VERTEX
  8
LAYER1
 10
10.0278
 20
3.2656
 30
0
 70
     0
  0
VERTEX
  8
LAYER1
 10
10.1111
 20
3.3212
 30
0
 70
     0
  0
VERTEX
  8
LAYER1
 10
10.2083
 20
3.3767
 30
0
 70
     0
  0
VERTEX
  8
LAYER1
 10
10.3194
 20
3.4184
 30
0
 70
     0
  0
VERTEX
  8
LAYER1
 10
10.4444
 20
3.4601
 30
0
 70
     0
  0
VERTEX
  8
LAYER1
 10
10.5417
 20
3.474
 30
0
 70
     0
  0
VERTEX
  8
LAYER1
 10
10.6806
 20
3.4878
 30
0
 70
     0
  0
VERTEX
  8
LAYER1
 10
10.7361
 20
3.4878
 30
0
 70
     0
  0
VERTEX
  8
LAYER1
 10
10.8056
 20
3.4878
 30
0
 70
     0
  0
VERTEX
  8
LAYER1
 10
10.9306
 20
3.474
 30
0
 70
     0
  0
VERTEX
  8
LAYER1
 10
11.0278
 20
3.4601
 30
0
 70
     0
  0
VERTEX
  8
LAYER1
 10
11.1528
 20
3.4184
 30
0
 70
     0
  0
VERTEX
  8
LAYER1
 10
11.2639
 20
3.3767
 30
0
 70
     0
  0
VERTEX
  8
LAYER1
 10
11.3611
 20
3.3212
 30
0
 70
     0
  0
VERTEX
  8
LAYER1
 10
11.4444
 20
3.2656
 30
0
 70
     0
  0
VERTEX
  8
LAYER1
 10
11.5556
 20
3.1823
 30
0
 70
     0
  0
VERTEX
  8
LAYER1
 10
11.5972
 20
3.1406
 30
0
 70
     0
  0
VERTEX
  8
LAYER1
 10
11.6389
 20
3.099
 30
0
 70
     0
  0
VERTEX
  8
LAYER1
 10
11.7222
 20
3.0017
 30
0
 70
     0
  0
VERTEX
  8
LAYER1
 10
11.7778
 20
2.9184
 30
0
 70
     0
  0
VERTEX
  8
LAYER1
 10
11.8333
 20
2.8212
 30
0
 70
     0
  0
VERTEX
  8
LAYER1
 10
11.8889
 20
2.6962
 30
0
 70
     0
  0
VERTEX
  8
LAYER1
 10
11.9167
 20
2.599
 30
0
 70
     0
  0
VERTEX
  8
LAYER1
 10
11.9444
 20
2.474
 30
0
 70
     0
  0
VERTEX
  8
LAYER1
 10
11.9583
 20
2.3628
 30
0
 70
     0
  0
VERTEX
  8
LAYER1
 10
11.9583
 20
2.3073
 30
0
 70
     0
  0
SEQEND
  0
POLYLINE
  8
LAYER1
  6
CONTINUOUS
 62
     7
 66
     1
 70
     0
 40
0.0039
 41
0.0039
  0
VERTEX
  8
LAYER1
 10
11.5
 20
2.2517
 30
0
 70
     0
  0
VERTEX
  8
LAYER1
 10
11.5
 20
2.224
 30
0
 70
     0
  0
VERTEX
  8
LAYER1
 10
11.4861
 20
2.1267
 30
0
 70
     0
  0
VERTEX
  8
LAYER1
 10
11.4722
 20
2.0573
 30
0
 70
     0
  0
VERTEX
  8
LAYER1
 10
11.4583
 20
2.0156
 30
0
 70
     0
  0
VERTEX
  8
LAYER1
 10
11.4306
 20
1.9462
 30
0
 70
     0
  0
VERTEX
  8
LAYER1
 10
11.3889
 20
1.8767
 30
0
 70
     0
  0
VERTEX
  8
LAYER1
 10
11.3472
 20
1.8073
 30
0
 70
     0
  0
VERTEX
  8
LAYER1
 10
11.3056
 20
1.7656
 30
0
 70
     0
  0
VERTEX
  8
LAYER1
 10
11.2778
 20
1.7378
 30
0
 70
     0
  0
VERTEX
  8
LAYER1
 10
11.25
 20
1.7101
 30
0
 70
     0
  0
VERTEX
  8
LAYER1
 10
11.1806
 20
1.6545
 30
0
 70
     0
  0
VERTEX
  8
LAYER1
 10
11.125
 20
1.6128
 30
0
 70
     0
  0
VERTEX
  8
LAYER1
 10
11.0694
 20
1.5851
 30
0
 70
     0
  0
VERTEX
  8
LAYER1
 10
11
 20
1.5573
 30
0
 70
     0
  0
VERTEX
  8
LAYER1
 10
10.9167
 20
1.5295
 30
0
 70
     0
  0
VERTEX
  8
LAYER1
 10
10.8472
 20
1.5156
 30
0
 70
     0
  0
VERTEX
  8
LAYER1
 10
10.7778
 20
1.5156
 30
0
 70
     0
  0
VERTEX
  8
LAYER1
 10
10.7361
 20
1.5156
 30
0
 70
     0
  0
VERTEX
  8
LAYER1
 10
10.6944
 20
1.5156
 30
0
 70
     0
  0
VERTEX
  8
LAYER1
 10
10.625
 20
1.5156
 30
0
 70
     0
  0
VERTEX
  8
LAYER1
 10
10.5556
 20
1.5295
 30
0
 70
     0
  0
VERTEX
  8
LAYER1
 10
10.4722
 20
1.5573
 30
0
 70
     0
  0
VERTEX
  8
LAYER1
 10
10.4028
 20
1.5851
 30
0
 70
     0
  0
VERTEX
  8
LAYER1
 10
10.3472
 20
1.6128
 30
0
 70
     0
  0
VERTEX
  8
LAYER1
 10
10.2917
 20
1.6545
 30
0
 70
     0
  0
VERTEX
  8
LAYER1
 10
10.2222
 20
1.7101
 30
0
 70
     0
  0
VERTEX
  8
LAYER1
 10
10.1944
 20
1.7378
 30
0
 70
     0
  0
VERTEX
  8
LAYER1
 10
10.1667
 20
1.7656
 30
0
 70
     0
  0
VERTEX
  8
LAYER1
 10
10.125
 20
1.8212
 30
0
 70
     0
  0
VERTEX
  8
LAYER1
 10
10.0833
 20
1.8767
 30
0
 70
     0
  0
VERTEX
  8
LAYER1
 10
10.0417
 20
1.9462
 30
0
 70
     0
  0
VERTEX
  8
LAYER1
 10
10.0139
 20
2.0156
 30
0
 70
     0
  0
VERTEX
  8
LAYER1
 10
10
 20
2.0851
 30
0
 70
     0
  0
VERTEX
  8
LAYER1
 10
9.9861
 20
2.1545
 30
0
 70
     0
  0
VERTEX
  8
LAYER1
 10
9.9722
 20
2.2378
 30
0
 70
     0
  0
VERTEX
  8
LAYER1
 10
9.9722
 20
2.2795
 30
0
 70
     0
  0
VERTEX
  8
LAYER1
 10
9.9722
 20
2.3212
 30
0
 70
     0
  0
VERTEX
  8
LAYER1
 10
9.9861
 20
2.4045
 30
0
 70
     0
  0
VERTEX
  8
LAYER1
 10
10
 20
2.474
 30
0
 70
     0
  0
VERTEX
  8
LAYER1
 10
10.0139
 20
2.5434
 30
0
 70
     0
  0
VERTEX
  8
LAYER1
 10
10.0417
 20
2.6128
 30
0
 70
     0
  0
VERTEX
  8
LAYER1
 10
10.0833
 20
2.6823
 30
0
 70
     0
  0
VERTEX
  8
LAYER1
 10
10.125
 20
2.7378
 30
0
 70
     0
  0
VERTEX
  8
LAYER1
 10
10.1667
 20
2.7934
 30
0
 70
     0
  0
VERTEX
  8
LAYER1
 10
10.1944
 20
2.8212
 30
0
 70
     0
  0
VERTEX
  8
LAYER1
 10
10.2222
 20
2.849
 30
0
 70
     0
  0
VERTEX
  8
LAYER1
 10
10.2778
 20
2.8906
 30
0
 70
     0
  0
VERTEX
  8
LAYER1
 10
10.3333
 20
2.9323
 30
0
 70
     0
  0
VERTEX
  8
LAYER1
 10
10.4028
 20
2.974
 30
0
 70
     0
  0
VERTEX
  8
LAYER1
 10
10.4722
 20
3.0017
 30
0
 70
     0
  0
VERTEX
  8
LAYER1
 10
10.5417
 20
3.0156
 30
0
 70
     0
  0
VERTEX
  8
LAYER1
 10
10.6111
 20
3.0295
 30
0
 70
     0
  0
VERTEX
  8
LAYER1
 10
10.6944
 20
3.0434
 30
0
 70
     0
  0
VERTEX
  8
LAYER1
 10
10.7361
 20
3.0434
 30
0
 70
     0
  0
VERTEX
  8
LAYER1
 10
10.7778
 20
3.0434
 30
0
 70
     0
  0
VERTEX
  8
LAYER1
 10
10.8611
 20
3.0295
 30
0
 70
     0
  0
VERTEX
  8
LAYER1
 10
10.9306
 20
3.0156
 30
0
 70
     0
  0
VERTEX
  8
LAYER1
 10
11
 20
3.0017
 30
0
 70
     0
  0
VERTEX
  8
LAYER1
 10
11.0694
 20
2.974
 30
0
 70
     0
  0
VERTEX
  8
LAYER1
 10
11.1389
 20
2.9323
 30
0
 70
     0
  0
VERTEX
  8
LAYER1
 10
11.1944
 20
2.8906
 30
0
 70
     0
  0
VERTEX
  8
LAYER1
 10
11.25
 20
2.849
 30
0
 70
     0
  0
VERTEX
  8
LAYER1
 10
11.2778
 20
2.8212
 30
0
 70
     0
  0
VERTEX
  8
LAYER1
 10
11.3056
 20
2.7934
 30
0
 70
     0
  0
VERTEX
  8
LAYER1
 10
11.3472
 20
2.7378
 30
0
 70
     0
  0
VERTEX
  8
LAYER1
 10
11.3889
 20
2.6823
 30
0
 70
     0
  0
VERTEX
  8
LAYER1
 10
11.4306
 20
2.6128
 30
0
 70
     0
  0
VERTEX
  8
LAYER1
 10
11.4583
 20
2.5434
 30
0
 70
     0
  0
VERTEX
  8
LAYER1
 10
11.4722
 20
2.4878
 30
0
 70
     0
  0
VERTEX
  8
LAYER1
 10
11.4861
 20
2.4184
 30
0
 70
     0
  0
VERTEX
  8
LAYER1
 10
11.5
 20
2.3351
 30
0
 70
     0
  0
VERTEX
  8
LAYER1
 10
11.5
 20
2.3073
 30
0
 70
     0
  0
SEQEND
  0
LINE
  8
LAYER1
  6
CONTINUOUS
 62
     7
 10
11.5
 20
2.3073
 30
0
 11
11.9583
 21
2.3073
 31
0
  0
ENDBLK
  8
LAYER1
  0
BLOCK
  8
LAYER1
  2
Group20
 70
     0
 10
0
 20
0
 30
0
  0
TEXT
  8
LAYER1
 62
     7
 10
0.2573
 20
10.5606
 30
0
 40
0.125
  1
Washers - Lock
 50
0
999
Geneva
  0
LINE
  8
LAYER1
  6
CONTINUOUS
 62
     7
 10
11.5
 20
2.2517
 30
0
 11
11.9583
 21
2.2517
 31
0
  0
LINE
  8
LAYER1
  6
CONTINUOUS
 62
     7
 10
0.2222
 20
10.7934
 30
0
 11
4.6806
 21
10.7934
 31
0
  0
ENDBLK
  8
LAYER1
  0
BLOCK
  8
LAYER1
  2
Group21
 70
     0
 10
0
 20
0
 30
0
  0
TEXT
  8
LAYER1
 62
     7
 10
8.6879
 20
10.5606
 30
0
 40
0.125
  1
Washers - Lock
 50
0
999
Geneva
  0
LINE
  8
LAYER1
  6
CONTINUOUS
 62
     7
 10
0.2361
 20
10.474
 30
0
 11
4.7083
 21
10.474
 31
0
  0
LINE
  8
LAYER1
  6
CONTINUOUS
 62
     7
 10
8.6389
 20
10.7934
 30
0
 11
13.1111
 21
10.7934
 31
0
  0
ENDBLK
  8
LAYER1
  0
BLOCK
  8
LAYER1
  2
Group22
 70
     0
 10
0
 20
0
 30
0
  0
LINE
  8
LAYER1
  6
CONTINUOUS
 62
     7
 10
8.6528
 20
10.474
 30
0
 11
13.1389
 21
10.474
 31
0
  0
POLYLINE
  8
LAYER1
  6
CONTINUOUS
 62
     7
 66
     1
 70
     0
 40
0.0039
 41
0.0039
  0
VERTEX
  8
LAYER1
 10
1.0278
 20
9.5156
 30
0
 70
     0
  0
VERTEX
  8
LAYER1
 10
1.0139
 20
9.5017
 30
0
 70
     0
  0
VERTEX
  8
LAYER1
 10
1
 20
9.4878
 30
0
 70
     0
  0
VERTEX
  8
LAYER1
 10
1
 20
9.4878
 30
0
 70
     0
  0
VERTEX
  8
LAYER1
 10
0.9861
 20
9.4878
 30
0
 70
     0
  0
VERTEX
  8
LAYER1
 10
0.9722
 20
9.4878
 30
0
 70
     0
  0
VERTEX
  8
LAYER1
 10
0.9583
 20
9.4878
 30
0
 70
     0
  0
VERTEX
  8
LAYER1
 10
0.9444
 20
9.5017
 30
0
 70
     0
  0
VERTEX
  8
LAYER1
 10
0.9444
 20
9.5017
 30
0
 70
     0
  0
VERTEX
  8
LAYER1
 10
0.9306
 20
9.5156
 30
0
 70
     0
  0
VERTEX
  8
LAYER1
 10
0.9306
 20
9.5295
 30
0
 70
     0
  0
VERTEX
  8
LAYER1
 10
0.9306
 20
9.5295
 30
0
 70
     0
  0
VERTEX
  8
LAYER1
 10
0.9444
 20
9.5573
 30
0
 70
     0
  0
VERTEX
  8
LAYER1
 10
0.9444
 20
9.5573
 30
0
 70
     0
  0
VERTEX
  8
LAYER1
 10
0.9444
 20
9.5573
 30
0
 70
     0
  0
VERTEX
  8
LAYER1
 10
0.9722
 20
9.5712
 30
0
 70
     0
  0
VERTEX
  8
LAYER1
 10
0.9861
 20
9.5712
 30
0
 70
     0
  0
VERTEX
  8
LAYER1
 10
1
 20
9.5712
 30
0
 70
     0
  0
VERTEX
  8
LAYER1
 10
1.0139
 20
9.5573
 30
0
 70
     0
  0
VERTEX
  8
LAYER1
 10
1.0139
 20
9.5573
 30
0
 70
     0
  0
VERTEX
  8
LAYER1
 10
1.0278
 20
9.5434
 30
0
 70
     0
  0
SEQEND
  0
POLYLINE
  8
LAYER1
  6
CONTINUOUS
 62
     7
 66
     1
 70
     0
 40
0.0039
 41
0.0039
  0
VERTEX
  8
LAYER1
 10
1.0694
 20
9.5156
 30
0
 70
     0
  0
VERTEX
  8
LAYER1
 10
1.0694
 20
9.5017
 30
0
 70
     0
  0
VERTEX
  8
LAYER1
 10
1.0556
 20
9.4878
 30
0
 70
     0
  0
VERTEX
  8
LAYER1
 10
1.0417
 20
9.474
 30
0
 70
     0
  0
VERTEX
  8
LAYER1
 10
1.0278
 20
9.4601
 30
0
 70
     0
  0
VERTEX
  8
LAYER1
 10
1
 20
9.4462
 30
0
 70
     0
  0
VERTEX
  8
LAYER1
 10
0.9861
 20
9.4462
 30
0
 70
     0
  0
VERTEX
  8
LAYER1
 10
0.9722
 20
9.4462
 30
0
 70
     0
  0
VERTEX
  8
LAYER1
 10
0.9306
 20
9.4601
 30
0
 70
     0
  0
VERTEX
  8
LAYER1
 10
0.9167
 20
9.474
 30
0
 70
     0
  0
VERTEX
  8
LAYER1
 10
0.9028
 20
9.4878
 30
0
 70
     0
  0
VERTEX
  8
LAYER1
 10
0.8889
 20
9.5156
 30
0
 70
     0
  0
VERTEX
  8
LAYER1
 10
0.8889
 20
9.5295
 30
0
 70
     0
  0
VERTEX
  8
LAYER1
 10
0.8889
 20
9.5434
 30
0
 70
     0
  0
VERTEX
  8
LAYER1
 10
0.9028
 20
9.5712
 30
0
 70
     0
  0
VERTEX
  8
LAYER1
 10
0.9167
 20
9.5851
 30
0
 70
     0
  0
VERTEX
  8
LAYER1
 10
0.9306
 20
9.599
 30
0
 70
     0
  0
VERTEX
  8
LAYER1
 10
0.9722
 20
9.6128
 30
0
 70
     0
  0
VERTEX
  8
LAYER1
 10
0.9861
 20
9.6128
 30
0
 70
     0
  0
VERTEX
  8
LAYER1
 10
1
 20
9.6128
 30
0
 70
     0
  0
VERTEX
  8
LAYER1
 10
1.0278
 20
9.599
 30
0
 70
     0
  0
VERTEX
  8
LAYER1
 10
1.0417
 20
9.5851
 30
0
 70
     0
  0
VERTEX
  8
LAYER1
 10
1.0556
 20
9.5712
 30
0
 70
     0
  0
VERTEX
  8
LAYER1
 10
1.0694
 20
9.5573
 30
0
 70
     0
  0
VERTEX
  8
LAYER1
 10
1.0694
 20
9.5434
 30
0
 70
     0
  0
SEQEND
  0
LINE
  8
LAYER1
  6
CONTINUOUS
 62
     7
 10
1.0278
 20
9.5434
 30
0
 11
1.0694
 21
9.5434
 31
0
  0
ENDBLK
  8
LAYER1
  0
BLOCK
  8
LAYER1
  2
Group23
 70
     0
 10
0
 20
0
 30
0
  0
LINE
  8
LAYER1
  6
CONTINUOUS
 62
     7
 10
1.0278
 20
9.5156
 30
0
 11
1.0694
 21
9.5156
 31
0
  0
LINE
  8
LAYER1
  6
CONTINUOUS
 62
     7
 10
1.1389
 20
9.6128
 30
0
 11
1.1389
 21
9.4462
 31
0
  0
LINE
  8
LAYER1
  6
CONTINUOUS
 62
     7
 10
1.125
 20
9.4462
 30
0
 11
1.125
 21
9.6128
 31
0
  0
POLYLINE
  8
LAYER1
  6
CONTINUOUS
 62
     7
 66
     1
 70
     0
 40
0.0039
 41
0.0039
  0
VERTEX
  8
LAYER1
 10
1.1111
 20
9.5434
 30
0
 70
     0
  0
VERTEX
  8
LAYER1
 10
1.1389
 20
9.5434
 30
0
 70
     0
  0
VERTEX
  8
LAYER1
 10
1.1389
 20
9.6128
 30
0
 70
     0
  0
VERTEX
  8
LAYER1
 10
1.125
 20
9.6128
 30
0
 70
     0
  0
VERTEX
  8
LAYER1
 10
1.1111
 20
9.5434
 30
0
 70
     0
  0
SEQEND
  0
POLYLINE
  8
LAYER1
  6
CONTINUOUS
 62
     7
 66
     1
 70
     0
 40
0.0039
 41
0.0039
  0
VERTEX
  8
LAYER1
 10
1.1528
 20
9.5156
 30
0
 70
     0
  0
VERTEX
  8
LAYER1
 10
1.1389
 20
9.5156
 30
0
 70
     0
  0
VERTEX
  8
LAYER1
 10
1.125
 20
9.4462
 30
0
 70
     0
  0
VERTEX
  8
LAYER1
 10
1.1389
 20
9.4462
 30
0
 70
     0
  0
VERTEX
  8
LAYER1
 10
1.1528
 20
9.5156
 30
0
 70
     0
  0
SEQEND
  0
ENDBLK
  8
LAYER1
  0
BLOCK
  8
LAYER1
  2
Group24
 70
     0
 10
0
 20
0
 30
0
  0
LINE
  8
LAYER1
  6
CONTINUOUS
 62
     7
 10
1.25
 20
9.6128
 30
0
 11
1.25
 21
9.4462
 31
0
  0
POLYLINE
  8
LAYER1
  6
CONTINUOUS
 62
     7
 66
     1
 70
     0
 40
0.0039
 41
0.0039
  0
VERTEX
  8
LAYER1
 10
1.2222
 20
9.4462
 30
0
 70
     0
  0
VERTEX
  8
LAYER1
 10
1.2222
 20
9.6128
 30
0
 70
     0
  0
VERTEX
  8
LAYER1
 10
1.25
 20
9.6128
 30
0
 70
     0
  0
SEQEND
  0
LINE
  8
LAYER1
  6
CONTINUOUS
 62
     7
 10
1.2222
 20
9.4462
 30
0
 11
1.25
 21
9.4462
 31
0
  0
LINE
  8
LAYER1
  6
CONTINUOUS
 62
     7
 10
1.2222
 20
9.5434
 30
0
 11
1.25
 21
9.5434
 31
0
  0
ENDBLK
  8
LAYER1
  0
BLOCK
  8
LAYER1
  2
Group25
 70
     0
 10
0
 20
0
 30
0
  0
LINE
  8
LAYER1
  6
CONTINUOUS
 62
     7
 10
1.2222
 20
9.5156
 30
0
 11
1.25
 21
9.5156
 31
0
  0
POLYLINE
  8
LAYER1
  6
CONTINUOUS
 62
     7
 66
     1
 70
     0
 40
0.0039
 41
0.0039
  0
VERTEX
  8
LAYER1
 10
2.4722
 20
9.5156
 30
0
 70
     0
  0
VERTEX
  8
LAYER1
 10
2.4722
 20
9.5017
 30
0
 70
     0
  0
VERTEX
  8
LAYER1
 10
2.4722
 20
9.5017
 30
0
 70
     0
  0
VERTEX
  8
LAYER1
 10
2.4583
 20
9.4878
 30
0
 70
     0
  0
VERTEX
  8
LAYER1
 10
2.4444
 20
9.474
 30
0
 70
     0
  0
VERTEX
  8
LAYER1
 10
2.4306
 20
9.474
 30
0
 70
     0
  0
VERTEX
  8
LAYER1
 10
2.4167
 20
9.474
 30
0
 70
     0
  0
VERTEX
  8
LAYER1
 10
2.4167
 20
9.474
 30
0
 70
     0
  0
VERTEX
  8
LAYER1
 10
2.4028
 20
9.474
 30
0
 70
     0
  0
VERTEX
  8
LAYER1
 10
2.3889
 20
9.4878
 30
0
 70
     0
  0
VERTEX
  8
LAYER1
 10
2.3889
 20
9.4878
 30
0
 70
     0
  0
VERTEX
  8
LAYER1
 10
2.375
 20
9.5156
 30
0
 70
     0
  0
VERTEX
  8
LAYER1
 10
2.375
 20
9.5295
 30
0
 70
     0
  0
VERTEX
  8
LAYER1
 10
2.375
 20
9.5295
 30
0
 70
     0
  0
VERTEX
  8
LAYER1
 10
2.3889
 20
9.5573
 30
0
 70
     0
  0
VERTEX
  8
LAYER1
 10
2.3889
 20
9.5712
 30
0
 70
     0
  0
VERTEX
  8
LAYER1
 10
2.3889
 20
9.5712
 30
0
 70
     0
  0
VERTEX
  8
LAYER1
 10
2.4167
 20
9.5851
 30
0
 70
     0
  0
VERTEX
  8
LAYER1
 10
2.4167
 20
9.5851
 30
0
 70
     0
  0
VERTEX
  8
LAYER1
 10
2.4306
 20
9.5851
 30
0
 70
     0
  0
VERTEX
  8
LAYER1
 10
2.4583
 20
9.5712
 30
0
 70
     0
  0
VERTEX
  8
LAYER1
 10
2.4583
 20
9.5712
 30
0
 70
     0
  0
VERTEX
  8
LAYER1
 10
2.4722
 20
9.5573
 30
0
 70
     0
  0
VERTEX
  8
LAYER1
 10
2.4722
 20
9.5434
 30
0
 70
     0
  0
VERTEX
  8
LAYER1
 10
2.4722
 20
9.5434
 30
0
 70
     0
  0
SEQEND
  0
POLYLINE
  8
LAYER1
  6
CONTINUOUS
 62
     7
 66
     1
 70
     0
 40
0.0039
 41
0.0039
  0
VERTEX
  8
LAYER1
 10
2.5139
 20
9.5156
 30
0
 70
     0
  0
VERTEX
  8
LAYER1
 10
2.5139
 20
9.5017
 30
0
 70
     0
  0
VERTEX
  8
LAYER1
 10
2.5
 20
9.474
 30
0
 70
     0
  0
VERTEX
  8
LAYER1
 10
2.4861
 20
9.4601
 30
0
 70
     0
  0
VERTEX
  8
LAYER1
 10
2.4722
 20
9.4462
 30
0
 70
     0
  0
VERTEX
  8
LAYER1
 10
2.4444
 20
9.4323
 30
0
 70
     0
  0
VERTEX
  8
LAYER1
 10
2.4167
 20
9.4323
 30
0
 70
     0
  0
VERTEX
  8
LAYER1
 10
2.4028
 20
9.4323
 30
0
 70
     0
  0
VERTEX
  8
LAYER1
 10
2.375
 20
9.4462
 30
0
 70
     0
  0
VERTEX
  8
LAYER1
 10
2.3611
 20
9.4601
 30
0
 70
     0
  0
VERTEX
  8
LAYER1
 10
2.3611
 20
9.4601
 30
0
 70
     0
  0
VERTEX
  8
LAYER1
 10
2.3333
 20
9.4878
 30
0
 70
     0
  0
VERTEX
  8
LAYER1
 10
2.3194
 20
9.5017
 30
0
 70
     0
  0
VERTEX
  8
LAYER1
 10
2.3194
 20
9.5156
 30
0
 70
     0
  0
VERTEX
  8
LAYER1
 10
2.3194
 20
9.5295
 30
0
 70
     0
  0
VERTEX
  8
LAYER1
 10
2.3194
 20
9.5434
 30
0
 70
     0
  0
VERTEX
  8
LAYER1
 10
2.3194
 20
9.5573
 30
0
 70
     0
  0
VERTEX
  8
LAYER1
 10
2.3333
 20
9.5712
 30
0
 70
     0
  0
VERTEX
  8
LAYER1
 10
2.3472
 20
9.5851
 30
0
 70
     0
  0
VERTEX
  8
LAYER1
 10
2.3611
 20
9.599
 30
0
 70
     0
  0
VERTEX
  8
LAYER1
 10
2.375
 20
9.6128
 30
0
 70
     0
  0
VERTEX
  8
LAYER1
 10
2.4028
 20
9.6267
 30
0
 70
     0
  0
VERTEX
  8
LAYER1
 10
2.4167
 20
9.6267
 30
0
 70
     0
  0
VERTEX
  8
LAYER1
 10
2.4444
 20
9.6267
 30
0
 70
     0
  0
VERTEX
  8
LAYER1
 10
2.4722
 20
9.6128
 30
0
 70
     0
  0
VERTEX
  8
LAYER1
 10
2.4861
 20
9.599
 30
0
 70
     0
  0
VERTEX
  8
LAYER1
 10
2.5
 20
9.5851
 30
0
 70
     0
  0
VERTEX
  8
LAYER1
 10
2.5139
 20
9.5573
 30
0
 70
     0
  0
VERTEX
  8
LAYER1
 10
2.5139
 20
9.5434
 30
0
 70
     0
  0
SEQEND
  0
LINE
  8
LAYER1
  6
CONTINUOUS
 62
     7
 10
2.4722
 20
9.5434
 30
0
 11
2.5139
 21
9.5434
 31
0
  0
ENDBLK
  8
LAYER1
  0
BLOCK
  8
LAYER1
  2
Group26
 70
     0
 10
0
 20
0
 30
0
  0
LINE
  8
LAYER1
  6
CONTINUOUS
 62
     7
 10
2.4722
 20
9.5156
 30
0
 11
2.5139
 21
9.5156
 31
0
  0
LINE
  8
LAYER1
  6
CONTINUOUS
 62
     7
 10
2.625
 20
9.6267
 30
0
 11
2.625
 21
9.4323
 31
0
  0
LINE
  8
LAYER1
  6
CONTINUOUS
 62
     7
 10
2.6528
 20
9.4323
 30
0
 11
2.6528
 21
9.6267
 31
0
  0
POLYLINE
  8
LAYER1
  6
CONTINUOUS
 62
     7
 66
     1
 70
     0
 40
0.0039
 41
0.0039
  0
VERTEX
  8
LAYER1
 10
2.6111
 20
9.5434
 30
0
 70
     0
  0
VERTEX
  8
LAYER1
 10
2.6389
 20
9.5434
 30
0
 70
     0
  0
VERTEX
  8
LAYER1
 10
2.6528
 20
9.6267
 30
0
 70
     0
  0
VERTEX
  8
LAYER1
 10
2.625
 20
9.6267
 30
0
 70
     0
  0
VERTEX
  8
LAYER1
 10
2.6111
 20
9.5434
 30
0
 70
     0
  0
SEQEND
  0
POLYLINE
  8
LAYER1
  6
CONTINUOUS
 62
     7
 66
     1
 70
     0
 40
0.0039
 41
0.0039
  0
VERTEX
  8
LAYER1
 10
2.6389
 20
9.5156
 30
0
 70
     0
  0
VERTEX
  8
LAYER1
 10
2.6528
 20
9.5156
 30
0
 70
     0
  0
VERTEX
  8
LAYER1
 10
2.6528
 20
9.4323
 30
0
 70
     0
  0
VERTEX
  8
LAYER1
 10
2.625
 20
9.4323
 30
0
 70
     0
  0
VERTEX
  8
LAYER1
 10
2.6389
 20
9.5156
 30
0
 70
     0
  0
SEQEND
  0
ENDBLK
  8
LAYER1
  0
BLOCK
  8
LAYER1
  2
Group27
 70
     0
 10
0
 20
0
 30
0
  0
LINE
  8
LAYER1
  6
CONTINUOUS
 62
     7
 10
2.75
 20
9.5156
 30
0
 11
2.7778
 21
9.5156
 31
0
  0
LINE
  8
LAYER1
  6
CONTINUOUS
 62
     7
 10
2.75
 20
9.5434
 30
0
 11
2.7778
 21
9.5434
 31
0
  0
POLYLINE
  8
LAYER1
  6
CONTINUOUS
 62
     7
 66
     1
 70
     0
 40
0.0039
 41
0.0039
  0
VERTEX
  8
LAYER1
 10
2.7639
 20
9.6267
 30
0
 70
     0
  0
VERTEX
  8
LAYER1
 10
2.77
 20
9.6207
 30
0
 70
     0
  0
VERTEX
  8
LAYER1
 10
2.7743
 20
9.6024
 30
0
 70
     0
  0
VERTEX
  8
LAYER1
 10
2.7769
 20
9.572
 30
0
 70
     0
  0
VERTEX
  8
LAYER1
 10
2.7778
 20
9.5295
 30
0
 70
     0
  0
VERTEX
  8
LAYER1
 10
2.7778
 20
9.5295
 30
0
 70
     0
  0
VERTEX
  8
LAYER1
 10
2.7769
 20
9.487
 30
0
 70
     0
  0
VERTEX
  8
LAYER1
 10
2.7743
 20
9.4566
 30
0
 70
     0
  0
VERTEX
  8
LAYER1
 10
2.77
 20
9.4384
 30
0
 70
     0
  0
VERTEX
  8
LAYER1
 10
2.7639
 20
9.4323
 30
0
 70
     0
  0
VERTEX
  8
LAYER1
 10
2.7639
 20
9.4323
 30
0
 70
     0
  0
VERTEX
  8
LAYER1
 10
2.7578
 20
9.4384
 30
0
 70
     0
  0
VERTEX
  8
LAYER1
 10
2.7535
 20
9.4566
 30
0
 70
     0
  0
VERTEX
  8
LAYER1
 10
2.7509
 20
9.487
 30
0
 70
     0
  0
VERTEX
  8
LAYER1
 10
2.75
 20
9.5295
 30
0
 70
     0
  0
VERTEX
  8
LAYER1
 10
2.75
 20
9.5295
 30
0
 70
     0
  0
VERTEX
  8
LAYER1
 10
2.7509
 20
9.572
 30
0
 70
     0
  0
VERTEX
  8
LAYER1
 10
2.7535
 20
9.6024
 30
0
 70
     0
  0
VERTEX
  8
LAYER1
 10
2.7578
 20
9.6207
 30
0
 70
     0
  0
VERTEX
  8
LAYER1
 10
2.7639
 20
9.6267
 30
0
 70
     0
  0
SEQEND
  0
ENDBLK
  8
LAYER1
  0
BLOCK
  8
LAYER1
  2
Group28
 70
     0
 10
0
 20
0
 30
0
  0
LINE
  8
LAYER1
  6
CONTINUOUS
 62
     7
 10
2.6944
 20
8.224
 30
0
 11
2.6944
 21
7.974
 31
0
  0
LINE
  8
LAYER1
  6
CONTINUOUS
 62
     7
 10
2.7222
 20
7.974
 30
0
 11
2.7222
 21
8.224
 31
0
  0
POLYLINE
  8
LAYER1
  6
CONTINUOUS
 62
     7
 66
     1
 70
     0
 40
0.0039
 41
0.0039
  0
VERTEX
  8
LAYER1
 10
2.6944
 20
8.224
 30
0
 70
     0
  0
VERTEX
  8
LAYER1
 10
2.7222
 20
8.224
 30
0
 70
     0
  0
VERTEX
  8
LAYER1
 10
2.7083
 20
8.1128
 30
0
 70
     0
  0
VERTEX
  8
LAYER1
 10
2.6806
 20
8.1128
 30
0
 70
     0
  0
VERTEX
  8
LAYER1
 10
2.6944
 20
8.224
 30
0
 70
     0
  0
SEQEND
  0
POLYLINE
  8
LAYER1
  6
CONTINUOUS
 62
     7
 66
     1
 70
     0
 40
0.0039
 41
0.0039
  0
VERTEX
  8
LAYER1
 10
2.7222
 20
7.974
 30
0
 70
     0
  0
VERTEX
  8
LAYER1
 10
2.6944
 20
7.974
 30
0
 70
     0
  0
VERTEX
  8
LAYER1
 10
2.7083
 20
8.0851
 30
0
 70
     0
  0
VERTEX
  8
LAYER1
 10
2.7361
 20
8.0851
 30
0
 70
     0
  0
VERTEX
  8
LAYER1
 10
2.7222
 20
7.974
 30
0
 70
     0
  0
SEQEND
  0
ENDBLK
  8
LAYER1
  0
BLOCK
  8
LAYER1
  2
Group29
 70
     0
 10
0
 20
0
 30
0
  0
POLYLINE
  8
LAYER1
  6
CONTINUOUS
 62
     7
 66
     1
 70
     0
 40
0.0039
 41
0.0039
  0
VERTEX
  8
LAYER1
 10
2.5972
 20
8.0851
 30
0
 70
     0
  0
VERTEX
  8
LAYER1
 10
2.5972
 20
8.0573
 30
0
 70
     0
  0
VERTEX
  8
LAYER1
 10
2.5833
 20
8.0295
 30
0
 70
     0
  0
VERTEX
  8
LAYER1
 10
2.5694
 20
8.0156
 30
0
 70
     0
  0
VERTEX
  8
LAYER1
 10
2.5556
 20
8.0017
 30
0
 70
     0
  0
VERTEX
  8
LAYER1
 10
2.5278
 20
7.9878
 30
0
 70
     0
  0
VERTEX
  8
LAYER1
 10
2.5
 20
7.974
 30
0
 70
     0
  0
VERTEX
  8
LAYER1
 10
2.4861
 20
7.974
 30
0
 70
     0
  0
VERTEX
  8
LAYER1
 10
2.4722
 20
7.974
 30
0
 70
     0
  0
VERTEX
  8
LAYER1
 10
2.4583
 20
7.974
 30
0
 70
     0
  0
VERTEX
  8
LAYER1
 10
2.4444
 20
7.974
 30
0
 70
     0
  0
VERTEX
  8
LAYER1
 10
2.4167
 20
7.9878
 30
0
 70
     0
  0
VERTEX
  8
LAYER1
 10
2.4028
 20
8.0017
 30
0
 70
     0
  0
VERTEX
  8
LAYER1
 10
2.3889
 20
8.0156
 30
0
 70
     0
  0
VERTEX
  8
LAYER1
 10
2.3889
 20
8.0156
 30
0
 70
     0
  0
VERTEX
  8
LAYER1
 10
2.3611
 20
8.0434
 30
0
 70
     0
  0
VERTEX
  8
LAYER1
 10
2.3472
 20
8.0712
 30
0
 70
     0
  0
VERTEX
  8
LAYER1
 10
2.3472
 20
8.0851
 30
0
 70
     0
  0
VERTEX
  8
LAYER1
 10
2.3472
 20
8.099
 30
0
 70
     0
  0
VERTEX
  8
LAYER1
 10
2.3472
 20
8.1128
 30
0
 70
     0
  0
VERTEX
  8
LAYER1
 10
2.3472
 20
8.1267
 30
0
 70
     0
  0
VERTEX
  8
LAYER1
 10
2.3611
 20
8.1545
 30
0
 70
     0
  0
VERTEX
  8
LAYER1
 10
2.375
 20
8.1823
 30
0
 70
     0
  0
VERTEX
  8
LAYER1
 10
2.3889
 20
8.1962
 30
0
 70
     0
  0
VERTEX
  8
LAYER1
 10
2.4028
 20
8.2101
 30
0
 70
     0
  0
VERTEX
  8
LAYER1
 10
2.4444
 20
8.224
 30
0
 70
     0
  0
VERTEX
  8
LAYER1
 10
2.4722
 20
8.224
 30
0
 70
     0
  0
VERTEX
  8
LAYER1
 10
2.5
 20
8.224
 30
0
 70
     0
  0
VERTEX
  8
LAYER1
 10
2.5556
 20
8.2101
 30
0
 70
     0
  0
VERTEX
  8
LAYER1
 10
2.5694
 20
8.1962
 30
0
 70
     0
  0
VERTEX
  8
LAYER1
 10
2.5833
 20
8.1684
 30
0
 70
     0
  0
VERTEX
  8
LAYER1
 10
2.5972
 20
8.1267
 30
0
 70
     0
  0
VERTEX
  8
LAYER1
 10
2.5972
 20
8.1128
 30
0
 70
     0
  0
SEQEND
  0
POLYLINE
  8
LAYER1
  6
CONTINUOUS
 62
     7
 66
     1
 70
     0
 40
0.0039
 41
0.0039
  0
VERTEX
  8
LAYER1
 10
2.5417
 20
8.0851
 30
0
 70
     0
  0
VERTEX
  8
LAYER1
 10
2.5417
 20
8.0712
 30
0
 70
     0
  0
VERTEX
  8
LAYER1
 10
2.5417
 20
8.0712
 30
0
 70
     0
  0
VERTEX
  8
LAYER1
 10
2.5278
 20
8.0573
 30
0
 70
     0
  0
VERTEX
  8
LAYER1
 10
2.5139
 20
8.0434
 30
0
 70
     0
  0
VERTEX
  8
LAYER1
 10
2.4861
 20
8.0295
 30
0
 70
     0
  0
VERTEX
  8
LAYER1
 10
2.4722
 20
8.0295
 30
0
 70
     0
  0
VERTEX
  8
LAYER1
 10
2.4583
 20
8.0295
 30
0
 70
     0
  0
VERTEX
  8
LAYER1
 10
2.4444
 20
8.0434
 30
0
 70
     0
  0
VERTEX
  8
LAYER1
 10
2.4306
 20
8.0573
 30
0
 70
     0
  0
VERTEX
  8
LAYER1
 10
2.4167
 20
8.0573
 30
0
 70
     0
  0
VERTEX
  8
LAYER1
 10
2.4028
 20
8.0851
 30
0
 70
     0
  0
VERTEX
  8
LAYER1
 10
2.4028
 20
8.099
 30
0
 70
     0
  0
VERTEX
  8
LAYER1
 10
2.4028
 20
8.1128
 30
0
 70
     0
  0
VERTEX
  8
LAYER1
 10
2.4167
 20
8.1406
 30
0
 70
     0
  0
VERTEX
  8
LAYER1
 10
2.4306
 20
8.1545
 30
0
 70
     0
  0
VERTEX
  8
LAYER1
 10
2.4306
 20
8.1545
 30
0
 70
     0
  0
VERTEX
  8
LAYER1
 10
2.4583
 20
8.1684
 30
0
 70
     0
  0
VERTEX
  8
LAYER1
 10
2.4722
 20
8.1684
 30
0
 70
     0
  0
VERTEX
  8
LAYER1
 10
2.4861
 20
8.1684
 30
0
 70
     0
  0
VERTEX
  8
LAYER1
 10
2.5139
 20
8.1545
 30
0
 70
     0
  0
VERTEX
  8
LAYER1
 10
2.5278
 20
8.1545
 30
0
 70
     0
  0
VERTEX
  8
LAYER1
 10
2.5417
 20
8.1406
 30
0
 70
     0
  0
VERTEX
  8
LAYER1
 10
2.5417
 20
8.1267
 30
0
 70
     0
  0
VERTEX
  8
LAYER1
 10
2.5417
 20
8.1128
 30
0
 70
     0
  0
SEQEND
  0
LINE
  8
LAYER1
  6
CONTINUOUS
 62
     7
 10
2.5417
 20
8.1128
 30
0
 11
2.5972
 21
8.1128
 31
0
  0
ENDBLK
  8
LAYER1
  0
BLOCK
  8
LAYER1
  2
Group30
 70
     0
 10
0
 20
0
 30
0
  0
LINE
  8
LAYER1
  6
CONTINUOUS
 62
     7
 10
2.5417
 20
8.0851
 30
0
 11
2.5972
 21
8.0851
 31
0
  0
LINE
  8
LAYER1
  6
CONTINUOUS
 62
     7
 10
2.8889
 20
8.1128
 30
0
 11
2.8611
 21
8.1128
 31
0
  0
LINE
  8
LAYER1
  6
CONTINUOUS
 62
     7
 10
2.8611
 20
8.0851
 30
0
 11
2.8889
 21
8.0851
 31
0
  0
POLYLINE
  8
LAYER1
  6
CONTINUOUS
 62
     7
 66
     1
 70
     0
 40
0.0039
 41
0.0039
  0
VERTEX
  8
LAYER1
 10
2.875
 20
8.224
 30
0
 70
     0
  0
VERTEX
  8
LAYER1
 10
2.8811
 20
8.2162
 30
0
 70
     0
  0
VERTEX
  8
LAYER1
 10
2.8854
 20
8.1927
 30
0
 70
     0
  0
VERTEX
  8
LAYER1
 10
2.888
 20
8.1537
 30
0
 70
     0
  0
VERTEX
  8
LAYER1
 10
2.8889
 20
8.099
 30
0
 70
     0
  0
VERTEX
  8
LAYER1
 10
2.8889
 20
8.099
 30
0
 70
     0
  0
VERTEX
  8
LAYER1
 10
2.888
 20
8.0443
 30
0
 70
     0
  0
VERTEX
  8
LAYER1
 10
2.8854
 20
8.0052
 30
0
 70
     0
  0
VERTEX
  8
LAYER1
 10
2.8811
 20
7.9818
 30
0
 70
     0
  0
VERTEX
  8
LAYER1
 10
2.875
 20
7.974
 30
0
 70
     0
  0
VERTEX
  8
LAYER1
 10
2.875
 20
7.974
 30
0
 70
     0
  0
VERTEX
  8
LAYER1
 10
2.8689
 20
7.9818
 30
0
 70
     0
  0
VERTEX
  8
LAYER1
 10
2.8646
 20
8.0052
 30
0
 70
     0
  0
VERTEX
  8
LAYER1
 10
2.862
 20
8.0443
 30
0
 70
     0
  0
VERTEX
  8
LAYER1
 10
2.8611
 20
8.099
 30
0
 70
     0
  0
VERTEX
  8
LAYER1
 10
2.8611
 20
8.099
 30
0
 70
     0
  0
VERTEX
  8
LAYER1
 10
2.862
 20
8.1537
 30
0
 70
     0
  0
VERTEX
  8
LAYER1
 10
2.8646
 20
8.1927
 30
0
 70
     0
  0
VERTEX
  8
LAYER1
 10
2.8689
 20
8.2162
 30
0
 70
     0
  0
VERTEX
  8
LAYER1
 10
2.875
 20
8.224
 30
0
 70
     0
  0
SEQEND
  0
ENDBLK
  8
LAYER1
  0
BLOCK
  8
LAYER1
  2
Group31
 70
     0
 10
0
 20
0
 30
0
  0
POLYLINE
  8
LAYER1
  6
CONTINUOUS
 62
     7
 66
     1
 70
     0
 40
0.0039
 41
0.0039
  0
VERTEX
  8
LAYER1
 10
1
 20
8.0851
 30
0
 70
     0
  0
VERTEX
  8
LAYER1
 10
1
 20
8.0712
 30
0
 70
     0
  0
VERTEX
  8
LAYER1
 10
1
 20
8.0712
 30
0
 70
     0
  0
VERTEX
  8
LAYER1
 10
0.9861
 20
8.0573
 30
0
 70
     0
  0
VERTEX
  8
LAYER1
 10
0.9722
 20
8.0434
 30
0
 70
     0
  0
VERTEX
  8
LAYER1
 10
0.9444
 20
8.0434
 30
0
 70
     0
  0
VERTEX
  8
LAYER1
 10
0.9306
 20
8.0434
 30
0
 70
     0
  0
VERTEX
  8
LAYER1
 10
0.9306
 20
8.0434
 30
0
 70
     0
  0
VERTEX
  8
LAYER1
 10
0.9028
 20
8.0434
 30
0
 70
     0
  0
VERTEX
  8
LAYER1
 10
0.8889
 20
8.0573
 30
0
 70
     0
  0
VERTEX
  8
LAYER1
 10
0.8889
 20
8.0573
 30
0
 70
     0
  0
VERTEX
  8
LAYER1
 10
0.875
 20
8.0851
 30
0
 70
     0
  0
VERTEX
  8
LAYER1
 10
0.875
 20
8.099
 30
0
 70
     0
  0
VERTEX
  8
LAYER1
 10
0.875
 20
8.1128
 30
0
 70
     0
  0
VERTEX
  8
LAYER1
 10
0.8889
 20
8.1406
 30
0
 70
     0
  0
VERTEX
  8
LAYER1
 10
0.8889
 20
8.1406
 30
0
 70
     0
  0
VERTEX
  8
LAYER1
 10
0.9028
 20
8.1545
 30
0
 70
     0
  0
VERTEX
  8
LAYER1
 10
0.9306
 20
8.1684
 30
0
 70
     0
  0
VERTEX
  8
LAYER1
 10
0.9306
 20
8.1684
 30
0
 70
     0
  0
VERTEX
  8
LAYER1
 10
0.9444
 20
8.1684
 30
0
 70
     0
  0
VERTEX
  8
LAYER1
 10
0.9722
 20
8.1545
 30
0
 70
     0
  0
VERTEX
  8
LAYER1
 10
0.9861
 20
8.1406
 30
0
 70
     0
  0
VERTEX
  8
LAYER1
 10
1
 20
8.1267
 30
0
 70
     0
  0
VERTEX
  8
LAYER1
 10
1
 20
8.1128
 30
0
 70
     0
  0
VERTEX
  8
LAYER1
 10
1
 20
8.1128
 30
0
 70
     0
  0
SEQEND
  0
POLYLINE
  8
LAYER1
  6
CONTINUOUS
 62
     7
 66
     1
 70
     0
 40
0.0039
 41
0.0039
  0
VERTEX
  8
LAYER1
 10
1.0556
 20
8.0851
 30
0
 70
     0
  0
VERTEX
  8
LAYER1
 10
1.0556
 20
8.0712
 30
0
 70
     0
  0
VERTEX
  8
LAYER1
 10
1.0556
 20
8.0573
 30
0
 70
     0
  0
VERTEX
  8
LAYER1
 10
1.0417
 20
8.0434
 30
0
 70
     0
  0
VERTEX
  8
LAYER1
 10
1.0139
 20
8.0156
 30
0
 70
     0
  0
VERTEX
  8
LAYER1
 10
1.0139
 20
8.0156
 30
0
 70
     0
  0
VERTEX
  8
LAYER1
 10
1
 20
8.0017
 30
0
 70
     0
  0
VERTEX
  8
LAYER1
 10
0.9583
 20
7.9878
 30
0
 70
     0
  0
VERTEX
  8
LAYER1
 10
0.9306
 20
7.9878
 30
0
 70
     0
  0
VERTEX
  8
LAYER1
 10
0.9167
 20
7.9878
 30
0
 70
     0
  0
VERTEX
  8
LAYER1
 10
0.875
 20
8.0017
 30
0
 70
     0
  0
VERTEX
  8
LAYER1
 10
0.8472
 20
8.0156
 30
0
 70
     0
  0
VERTEX
  8
LAYER1
 10
0.8333
 20
8.0295
 30
0
 70
     0
  0
VERTEX
  8
LAYER1
 10
0.8194
 20
8.0712
 30
0
 70
     0
  0
VERTEX
  8
LAYER1
 10
0.8194
 20
8.099
 30
0
 70
     0
  0
VERTEX
  8
LAYER1
 10
0.8194
 20
8.1267
 30
0
 70
     0
  0
VERTEX
  8
LAYER1
 10
0.8333
 20
8.1684
 30
0
 70
     0
  0
VERTEX
  8
LAYER1
 10
0.8472
 20
8.1823
 30
0
 70
     0
  0
VERTEX
  8
LAYER1
 10
0.8611
 20
8.1962
 30
0
 70
     0
  0
VERTEX
  8
LAYER1
 10
0.8889
 20
8.2101
 30
0
 70
     0
  0
VERTEX
  8
LAYER1
 10
0.9028
 20
8.224
 30
0
 70
     0
  0
VERTEX
  8
LAYER1
 10
0.9167
 20
8.224
 30
0
 70
     0
  0
VERTEX
  8
LAYER1
 10
0.9306
 20
8.224
 30
0
 70
     0
  0
VERTEX
  8
LAYER1
 10
0.9444
 20
8.224
 30
0
 70
     0
  0
VERTEX
  8
LAYER1
 10
0.9583
 20
8.224
 30
0
 70
     0
  0
VERTEX
  8
LAYER1
 10
0.9861
 20
8.2101
 30
0
 70
     0
  0
VERTEX
  8
LAYER1
 10
1
 20
8.1962
 30
0
 70
     0
  0
VERTEX
  8
LAYER1
 10
1.0139
 20
8.1823
 30
0
 70
     0
  0
VERTEX
  8
LAYER1
 10
1.0278
 20
8.1684
 30
0
 70
     0
  0
VERTEX
  8
LAYER1
 10
1.0417
 20
8.1545
 30
0
 70
     0
  0
VERTEX
  8
LAYER1
 10
1.0556
 20
8.1406
 30
0
 70
     0
  0
VERTEX
  8
LAYER1
 10
1.0556
 20
8.1267
 30
0
 70
     0
  0
VERTEX
  8
LAYER1
 10
1.0556
 20
8.1128
 30
0
 70
     0
  0
SEQEND
  0
LINE
  8
LAYER1
  6
CONTINUOUS
 62
     7
 10
1
 20
8.1128
 30
0
 11
1.0556
 21
8.1128
 31
0
  0
ENDBLK
  8
LAYER1
  0
BLOCK
  8
LAYER1
  2
Group32
 70
     0
 10
0
 20
0
 30
0
  0
LINE
  8
LAYER1
  6
CONTINUOUS
 62
     7
 10
1
 20
8.0851
 30
0
 11
1.0556
 21
8.0851
 31
0
  0
LINE
  8
LAYER1
  6
CONTINUOUS
 62
     7
 10
1.1528
 20
8.224
 30
0
 11
1.1528
 21
7.9878
 31
0
  0
LINE
  8
LAYER1
  6
CONTINUOUS
 62
     7
 10
1.1806
 20
7.9878
 30
0
 11
1.1806
 21
8.224
 31
0
  0
POLYLINE
  8
LAYER1
  6
CONTINUOUS
 62
     7
 66
     1
 70
     0
 40
0.0039
 41
0.0039
  0
VERTEX
  8
LAYER1
 10
1.1667
 20
8.1128
 30
0
 70
     0
  0
VERTEX
  8
LAYER1
 10
1.1389
 20
8.1128
 30
0
 70
     0
  0
VERTEX
  8
LAYER1
 10
1.1528
 20
8.224
 30
0
 70
     0
  0
VERTEX
  8
LAYER1
 10
1.1806
 20
8.224
 30
0
 70
     0
  0
VERTEX
  8
LAYER1
 10
1.1667
 20
8.1128
 30
0
 70
     0
  0
SEQEND
  0
POLYLINE
  8
LAYER1
  6
CONTINUOUS
 62
     7
 66
     1
 70
     0
 40
0.0039
 41
0.0039
  0
VERTEX
  8
LAYER1
 10
1.1667
 20
8.0851
 30
0
 70
     0
  0
VERTEX
  8
LAYER1
 10
1.1944
 20
8.0851
 30
0
 70
     0
  0
VERTEX
  8
LAYER1
 10
1.1806
 20
7.9878
 30
0
 70
     0
  0
VERTEX
  8
LAYER1
 10
1.1528
 20
7.9878
 30
0
 70
     0
  0
VERTEX
  8
LAYER1
 10
1.1667
 20
8.0851
 30
0
 70
     0
  0
SEQEND
  0
ENDBLK
  8
LAYER1
  0
BLOCK
  8
LAYER1
  2
Group33
 70
     0
 10
0
 20
0
 30
0
  0
LINE
  8
LAYER1
  6
CONTINUOUS
 62
     7
 10
1.3194
 20
8.1128
 30
0
 11
1.2917
 21
8.1128
 31
0
  0
LINE
  8
LAYER1
  6
CONTINUOUS
 62
     7
 10
1.2917
 20
8.0851
 30
0
 11
1.3194
 21
8.0851
 31
0
  0
POLYLINE
  8
LAYER1
  6
CONTINUOUS
 62
     7
 66
     1
 70
     0
 40
0.0039
 41
0.0039
  0
VERTEX
  8
LAYER1
 10
1.3056
 20
8.224
 30
0
 70
     0
  0
VERTEX
  8
LAYER1
 10
1.3116
 20
8.2166
 30
0
 70
     0
  0
VERTEX
  8
LAYER1
 10
1.316
 20
8.1945
 30
0
 70
     0
  0
VERTEX
  8
LAYER1
 10
1.3186
 20
8.1576
 30
0
 70
     0
  0
VERTEX
  8
LAYER1
 10
1.3194
 20
8.1059
 30
0
 70
     0
  0
VERTEX
  8
LAYER1
 10
1.3194
 20
8.1059
 30
0
 70
     0
  0
VERTEX
  8
LAYER1
 10
1.3186
 20
8.0543
 30
0
 70
     0
  0
VERTEX
  8
LAYER1
 10
1.316
 20
8.0174
 30
0
 70
     0
  0
VERTEX
  8
LAYER1
 10
1.3116
 20
7.9952
 30
0
 70
     0
  0
VERTEX
  8
LAYER1
 10
1.3056
 20
7.9878
 30
0
 70
     0
  0
VERTEX
  8
LAYER1
 10
1.3056
 20
7.9878
 30
0
 70
     0
  0
VERTEX
  8
LAYER1
 10
1.2995
 20
7.9952
 30
0
 70
     0
  0
VERTEX
  8
LAYER1
 10
1.2951
 20
8.0174
 30
0
 70
     0
  0
VERTEX
  8
LAYER1
 10
1.2925
 20
8.0543
 30
0
 70
     0
  0
VERTEX
  8
LAYER1
 10
1.2917
 20
8.1059
 30
0
 70
     0
  0
VERTEX
  8
LAYER1
 10
1.2917
 20
8.1059
 30
0
 70
     0
  0
VERTEX
  8
LAYER1
 10
1.2925
 20
8.1576
 30
0
 70
     0
  0
VERTEX
  8
LAYER1
 10
1.2951
 20
8.1945
 30
0
 70
     0
  0
VERTEX
  8
LAYER1
 10
1.2995
 20
8.2166
 30
0
 70
     0
  0
VERTEX
  8
LAYER1
 10
1.3056
 20
8.224
 30
0
 70
     0
  0
SEQEND
  0
ENDBLK
  8
LAYER1
  0
BLOCK
  8
LAYER1
  2
Group34
 70
     0
 10
0
 20
0
 30
0
  0
POLYLINE
  8
LAYER1
  6
CONTINUOUS
 62
     7
 66
     1
 70
     0
 40
0.0039
 41
0.0039
  0
VERTEX
  8
LAYER1
 10
4.0556
 20
9.5156
 30
0
 70
     0
  0
VERTEX
  8
LAYER1
 10
4.0556
 20
9.5017
 30
0
 70
     0
  0
VERTEX
  8
LAYER1
 10
4.0556
 20
9.4878
 30
0
 70
     0
  0
VERTEX
  8
LAYER1
 10
4.0417
 20
9.474
 30
0
 70
     0
  0
VERTEX
  8
LAYER1
 10
4.0278
 20
9.4601
 30
0
 70
     0
  0
VERTEX
  8
LAYER1
 10
4.0139
 20
9.4601
 30
0
 70
     0
  0
VERTEX
  8
LAYER1
 10
4
 20
9.4601
 30
0
 70
     0
  0
VERTEX
  8
LAYER1
 10
3.9861
 20
9.4601
 30
0
 70
     0
  0
VERTEX
  8
LAYER1
 10
3.9722
 20
9.4601
 30
0
 70
     0
  0
VERTEX
  8
LAYER1
 10
3.9583
 20
9.474
 30
0
 70
     0
  0
VERTEX
  8
LAYER1
 10
3.9583
 20
9.4878
 30
0
 70
     0
  0
VERTEX
  8
LAYER1
 10
3.9444
 20
9.5017
 30
0
 70
     0
  0
VERTEX
  8
LAYER1
 10
3.9444
 20
9.5156
 30
0
 70
     0
  0
VERTEX
  8
LAYER1
 10
3.9444
 20
9.5295
 30
0
 70
     0
  0
VERTEX
  8
LAYER1
 10
3.9583
 20
9.5573
 30
0
 70
     0
  0
VERTEX
  8
LAYER1
 10
3.9583
 20
9.5573
 30
0
 70
     0
  0
VERTEX
  8
LAYER1
 10
3.9722
 20
9.5712
 30
0
 70
     0
  0
VERTEX
  8
LAYER1
 10
3.9861
 20
9.5851
 30
0
 70
     0
  0
VERTEX
  8
LAYER1
 10
4
 20
9.5851
 30
0
 70
     0
  0
VERTEX
  8
LAYER1
 10
4.0139
 20
9.5851
 30
0
 70
     0
  0
VERTEX
  8
LAYER1
 10
4.0417
 20
9.5712
 30
0
 70
     0
  0
VERTEX
  8
LAYER1
 10
4.0417
 20
9.5573
 30
0
 70
     0
  0
VERTEX
  8
LAYER1
 10
4.0556
 20
9.5434
 30
0
 70
     0
  0
VERTEX
  8
LAYER1
 10
4.0556
 20
9.5295
 30
0
 70
     0
  0
VERTEX
  8
LAYER1
 10
4.0556
 20
9.5295
 30
0
 70
     0
  0
SEQEND
  0
POLYLINE
  8
LAYER1
  6
CONTINUOUS
 62
     7
 66
     1
 70
     0
 40
0.0039
 41
0.0039
  0
VERTEX
  8
LAYER1
 10
4.0972
 20
9.5156
 30
0
 70
     0
  0
VERTEX
  8
LAYER1
 10
4.0972
 20
9.4878
 30
0
 70
     0
  0
VERTEX
  8
LAYER1
 10
4.0833
 20
9.4601
 30
0
 70
     0
  0
VERTEX
  8
LAYER1
 10
4.0694
 20
9.4462
 30
0
 70
     0
  0
VERTEX
  8
LAYER1
 10
4.0556
 20
9.4323
 30
0
 70
     0
  0
VERTEX
  8
LAYER1
 10
4.0278
 20
9.4184
 30
0
 70
     0
  0
VERTEX
  8
LAYER1
 10
4
 20
9.4184
 30
0
 70
     0
  0
VERTEX
  8
LAYER1
 10
3.9861
 20
9.4184
 30
0
 70
     0
  0
VERTEX
  8
LAYER1
 10
3.9444
 20
9.4323
 30
0
 70
     0
  0
VERTEX
  8
LAYER1
 10
3.9306
 20
9.4462
 30
0
 70
     0
  0
VERTEX
  8
LAYER1
 10
3.9306
 20
9.4462
 30
0
 70
     0
  0
VERTEX
  8
LAYER1
 10
3.9028
 20
9.474
 30
0
 70
     0
  0
VERTEX
  8
LAYER1
 10
3.8889
 20
9.4878
 30
0
 70
     0
  0
VERTEX
  8
LAYER1
 10
3.8889
 20
9.5017
 30
0
 70
     0
  0
VERTEX
  8
LAYER1
 10
3.8889
 20
9.5156
 30
0
 70
     0
  0
VERTEX
  8
LAYER1
 10
3.8889
 20
9.5295
 30
0
 70
     0
  0
VERTEX
  8
LAYER1
 10
3.8889
 20
9.5434
 30
0
 70
     0
  0
VERTEX
  8
LAYER1
 10
3.9028
 20
9.5712
 30
0
 70
     0
  0
VERTEX
  8
LAYER1
 10
3.9167
 20
9.5851
 30
0
 70
     0
  0
VERTEX
  8
LAYER1
 10
3.9306
 20
9.599
 30
0
 70
     0
  0
VERTEX
  8
LAYER1
 10
3.9444
 20
9.6128
 30
0
 70
     0
  0
VERTEX
  8
LAYER1
 10
3.9861
 20
9.6267
 30
0
 70
     0
  0
VERTEX
  8
LAYER1
 10
4
 20
9.6267
 30
0
 70
     0
  0
VERTEX
  8
LAYER1
 10
4.0278
 20
9.6267
 30
0
 70
     0
  0
VERTEX
  8
LAYER1
 10
4.0556
 20
9.6128
 30
0
 70
     0
  0
VERTEX
  8
LAYER1
 10
4.0694
 20
9.599
 30
0
 70
     0
  0
VERTEX
  8
LAYER1
 10
4.0833
 20
9.5851
 30
0
 70
     0
  0
VERTEX
  8
LAYER1
 10
4.0972
 20
9.5434
 30
0
 70
     0
  0
VERTEX
  8
LAYER1
 10
4.0972
 20
9.5295
 30
0
 70
     0
  0
SEQEND
  0
LINE
  8
LAYER1
  6
CONTINUOUS
 62
     7
 10
4.0556
 20
9.5295
 30
0
 11
4.0972
 21
9.5295
 31
0
  0
ENDBLK
  8
LAYER1
  0
BLOCK
  8
LAYER1
  2
Group35
 70
     0
 10
0
 20
0
 30
0
  0
LINE
  8
LAYER1
  6
CONTINUOUS
 62
     7
 10
4.0556
 20
9.5156
 30
0
 11
4.0972
 21
9.5156
 31
0
  0
LINE
  8
LAYER1
  6
CONTINUOUS
 62
     7
 10
4.2083
 20
9.6267
 30
0
 11
4.2083
 21
9.4184
 31
0
  0
LINE
  8
LAYER1
  6
CONTINUOUS
 62
     7
 10
4.2361
 20
9.4184
 30
0
 11
4.2361
 21
9.6267
 31
0
  0
POLYLINE
  8
LAYER1
  6
CONTINUOUS
 62
     7
 66
     1
 70
     0
 40
0.0039
 41
0.0039
  0
VERTEX
  8
LAYER1
 10
4.2222
 20
9.5295
 30
0
 70
     0
  0
VERTEX
  8
LAYER1
 10
4.1944
 20
9.5295
 30
0
 70
     0
  0
VERTEX
  8
LAYER1
 10
4.2083
 20
9.6267
 30
0
 70
     0
  0
VERTEX
  8
LAYER1
 10
4.2361
 20
9.6267
 30
0
 70
     0
  0
VERTEX
  8
LAYER1
 10
4.2222
 20
9.5295
 30
0
 70
     0
  0
SEQEND
  0
POLYLINE
  8
LAYER1
  6
CONTINUOUS
 62
     7
 66
     1
 70
     0
 40
0.0039
 41
0.0039
  0
VERTEX
  8
LAYER1
 10
4.2222
 20
9.5156
 30
0
 70
     0
  0
VERTEX
  8
LAYER1
 10
4.25
 20
9.5156
 30
0
 70
     0
  0
VERTEX
  8
LAYER1
 10
4.2361
 20
9.4184
 30
0
 70
     0
  0
VERTEX
  8
LAYER1
 10
4.2083
 20
9.4184
 30
0
 70
     0
  0
VERTEX
  8
LAYER1
 10
4.2222
 20
9.5156
 30
0
 70
     0
  0
SEQEND
  0
ENDBLK
  8
LAYER1
  0
BLOCK
  8
LAYER1
  2
Group36
 70
     0
 10
0
 20
0
 30
0
  0
LINE
  8
LAYER1
  6
CONTINUOUS
 62
     7
 10
4.3611
 20
9.5295
 30
0
 11
4.3333
 21
9.5295
 31
0
  0
LINE
  8
LAYER1
  6
CONTINUOUS
 62
     7
 10
4.3333
 20
9.5017
 30
0
 11
4.3611
 21
9.5156
 31
0
  0
POLYLINE
  8
LAYER1
  6
CONTINUOUS
 62
     7
 66
     1
 70
     0
 40
0.0039
 41
0.0039
  0
VERTEX
  8
LAYER1
 10
4.3472
 20
9.6267
 30
0
 70
     0
  0
VERTEX
  8
LAYER1
 10
4.3533
 20
9.6202
 30
0
 70
     0
  0
VERTEX
  8
LAYER1
 10
4.3576
 20
9.6007
 30
0
 70
     0
  0
VERTEX
  8
LAYER1
 10
4.3602
 20
9.5681
 30
0
 70
     0
  0
VERTEX
  8
LAYER1
 10
4.3611
 20
9.5226
 30
0
 70
     0
  0
VERTEX
  8
LAYER1
 10
4.3611
 20
9.5226
 30
0
 70
     0
  0
VERTEX
  8
LAYER1
 10
4.3602
 20
9.477
 30
0
 70
     0
  0
VERTEX
  8
LAYER1
 10
4.3576
 20
9.4445
 30
0
 70
     0
  0
VERTEX
  8
LAYER1
 10
4.3533
 20
9.4249
 30
0
 70
     0
  0
VERTEX
  8
LAYER1
 10
4.3472
 20
9.4184
 30
0
 70
     0
  0
VERTEX
  8
LAYER1
 10
4.3472
 20
9.4184
 30
0
 70
     0
  0
VERTEX
  8
LAYER1
 10
4.3411
 20
9.4249
 30
0
 70
     0
  0
VERTEX
  8
LAYER1
 10
4.3368
 20
9.4445
 30
0
 70
     0
  0
VERTEX
  8
LAYER1
 10
4.3342
 20
9.477
 30
0
 70
     0
  0
VERTEX
  8
LAYER1
 10
4.3333
 20
9.5226
 30
0
 70
     0
  0
VERTEX
  8
LAYER1
 10
4.3333
 20
9.5226
 30
0
 70
     0
  0
VERTEX
  8
LAYER1
 10
4.3342
 20
9.5681
 30
0
 70
     0
  0
VERTEX
  8
LAYER1
 10
4.3368
 20
9.6007
 30
0
 70
     0
  0
VERTEX
  8
LAYER1
 10
4.3411
 20
9.6202
 30
0
 70
     0
  0
VERTEX
  8
LAYER1
 10
4.3472
 20
9.6267
 30
0
 70
     0
  0
SEQEND
  0
ENDBLK
  8
LAYER1
  0
BLOCK
  8
LAYER1
  2
Group37
 70
     0
 10
0
 20
0
 30
0
  0
POLYLINE
  8
LAYER1
  6
CONTINUOUS
 62
     7
 66
     1
 70
     0
 40
0.0039
 41
0.0039
  0
VERTEX
  8
LAYER1
 10
1.0417
 20
5.4045
 30
0
 70
     0
  0
VERTEX
  8
LAYER1
 10
1.0417
 20
5.3767
 30
0
 70
     0
  0
VERTEX
  8
LAYER1
 10
1.0278
 20
5.3212
 30
0
 70
     0
  0
VERTEX
  8
LAYER1
 10
1.0139
 20
5.2795
 30
0
 70
     0
  0
VERTEX
  8
LAYER1
 10
0.9861
 20
5.2378
 30
0
 70
     0
  0
VERTEX
  8
LAYER1
 10
0.9583
 20
5.2101
 30
0
 70
     0
  0
VERTEX
  8
LAYER1
 10
0.9306
 20
5.1823
 30
0
 70
     0
  0
VERTEX
  8
LAYER1
 10
0.8889
 20
5.1545
 30
0
 70
     0
  0
VERTEX
  8
LAYER1
 10
0.8472
 20
5.1406
 30
0
 70
     0
  0
VERTEX
  8
LAYER1
 10
0.7778
 20
5.1267
 30
0
 70
     0
  0
VERTEX
  8
LAYER1
 10
0.75
 20
5.1267
 30
0
 70
     0
  0
VERTEX
  8
LAYER1
 10
0.7222
 20
5.1267
 30
0
 70
     0
  0
VERTEX
  8
LAYER1
 10
0.6528
 20
5.1406
 30
0
 70
     0
  0
VERTEX
  8
LAYER1
 10
0.6111
 20
5.1545
 30
0
 70
     0
  0
VERTEX
  8
LAYER1
 10
0.5694
 20
5.1823
 30
0
 70
     0
  0
VERTEX
  8
LAYER1
 10
0.5417
 20
5.2101
 30
0
 70
     0
  0
VERTEX
  8
LAYER1
 10
0.5278
 20
5.224
 30
0
 70
     0
  0
VERTEX
  8
LAYER1
 10
0.4861
 20
5.2795
 30
0
 70
     0
  0
VERTEX
  8
LAYER1
 10
0.4722
 20
5.3212
 30
0
 70
     0
  0
VERTEX
  8
LAYER1
 10
0.4583
 20
5.3906
 30
0
 70
     0
  0
VERTEX
  8
LAYER1
 10
0.4583
 20
5.4184
 30
0
 70
     0
  0
VERTEX
  8
LAYER1
 10
0.4583
 20
5.4462
 30
0
 70
     0
  0
VERTEX
  8
LAYER1
 10
0.4722
 20
5.5156
 30
0
 70
     0
  0
VERTEX
  8
LAYER1
 10
0.4861
 20
5.5573
 30
0
 70
     0
  0
VERTEX
  8
LAYER1
 10
0.5278
 20
5.6128
 30
0
 70
     0
  0
VERTEX
  8
LAYER1
 10
0.5417
 20
5.6267
 30
0
 70
     0
  0
VERTEX
  8
LAYER1
 10
0.5556
 20
5.6406
 30
0
 70
     0
  0
VERTEX
  8
LAYER1
 10
0.6111
 20
5.6823
 30
0
 70
     0
  0
VERTEX
  8
LAYER1
 10
0.6528
 20
5.6962
 30
0
 70
     0
  0
VERTEX
  8
LAYER1
 10
0.7222
 20
5.7101
 30
0
 70
     0
  0
VERTEX
  8
LAYER1
 10
0.75
 20
5.7101
 30
0
 70
     0
  0
VERTEX
  8
LAYER1
 10
0.7778
 20
5.7101
 30
0
 70
     0
  0
VERTEX
  8
LAYER1
 10
0.8472
 20
5.6962
 30
0
 70
     0
  0
VERTEX
  8
LAYER1
 10
0.8889
 20
5.6823
 30
0
 70
     0
  0
VERTEX
  8
LAYER1
 10
0.9444
 20
5.6406
 30
0
 70
     0
  0
VERTEX
  8
LAYER1
 10
0.9583
 20
5.6267
 30
0
 70
     0
  0
VERTEX
  8
LAYER1
 10
0.9861
 20
5.599
 30
0
 70
     0
  0
VERTEX
  8
LAYER1
 10
1.0139
 20
5.5573
 30
0
 70
     0
  0
VERTEX
  8
LAYER1
 10
1.0278
 20
5.5156
 30
0
 70
     0
  0
VERTEX
  8
LAYER1
 10
1.0417
 20
5.4601
 30
0
 70
     0
  0
VERTEX
  8
LAYER1
 10
1.0417
 20
5.4323
 30
0
 70
     0
  0
SEQEND
  0
POLYLINE
  8
LAYER1
  6
CONTINUOUS
 62
     7
 66
     1
 70
     0
 40
0.0039
 41
0.0039
  0
VERTEX
  8
LAYER1
 10
0.9028
 20
5.4045
 30
0
 70
     0
  0
VERTEX
  8
LAYER1
 10
0.9028
 20
5.3906
 30
0
 70
     0
  0
VERTEX
  8
LAYER1
 10
0.9028
 20
5.3767
 30
0
 70
     0
  0
VERTEX
  8
LAYER1
 10
0.8889
 20
5.349
 30
0
 70
     0
  0
VERTEX
  8
LAYER1
 10
0.875
 20
5.3212
 30
0
 70
     0
  0
VERTEX
  8
LAYER1
 10
0.8611
 20
5.3073
 30
0
 70
     0
  0
VERTEX
  8
LAYER1
 10
0.8472
 20
5.2934
 30
0
 70
     0
  0
VERTEX
  8
LAYER1
 10
0.8194
 20
5.2656
 30
0
 70
     0
  0
VERTEX
  8
LAYER1
 10
0.7917
 20
5.2517
 30
0
 70
     0
  0
VERTEX
  8
LAYER1
 10
0.7639
 20
5.2517
 30
0
 70
     0
  0
VERTEX
  8
LAYER1
 10
0.75
 20
5.2517
 30
0
 70
     0
  0
VERTEX
  8
LAYER1
 10
0.7361
 20
5.2517
 30
0
 70
     0
  0
VERTEX
  8
LAYER1
 10
0.7083
 20
5.2517
 30
0
 70
     0
  0
VERTEX
  8
LAYER1
 10
0.6806
 20
5.2656
 30
0
 70
     0
  0
VERTEX
  8
LAYER1
 10
0.6528
 20
5.2934
 30
0
 70
     0
  0
VERTEX
  8
LAYER1
 10
0.6389
 20
5.3073
 30
0
 70
     0
  0
VERTEX
  8
LAYER1
 10
0.625
 20
5.3212
 30
0
 70
     0
  0
VERTEX
  8
LAYER1
 10
0.6111
 20
5.349
 30
0
 70
     0
  0
VERTEX
  8
LAYER1
 10
0.5972
 20
5.3767
 30
0
 70
     0
  0
VERTEX
  8
LAYER1
 10
0.5972
 20
5.4045
 30
0
 70
     0
  0
VERTEX
  8
LAYER1
 10
0.5972
 20
5.4184
 30
0
 70
     0
  0
VERTEX
  8
LAYER1
 10
0.5972
 20
5.4323
 30
0
 70
     0
  0
VERTEX
  8
LAYER1
 10
0.5972
 20
5.4601
 30
0
 70
     0
  0
VERTEX
  8
LAYER1
 10
0.6111
 20
5.4878
 30
0
 70
     0
  0
VERTEX
  8
LAYER1
 10
0.625
 20
5.5156
 30
0
 70
     0
  0
VERTEX
  8
LAYER1
 10
0.6389
 20
5.5295
 30
0
 70
     0
  0
VERTEX
  8
LAYER1
 10
0.6528
 20
5.5434
 30
0
 70
     0
  0
VERTEX
  8
LAYER1
 10
0.6806
 20
5.5573
 30
0
 70
     0
  0
VERTEX
  8
LAYER1
 10
0.7083
 20
5.5712
 30
0
 70
     0
  0
VERTEX
  8
LAYER1
 10
0.7361
 20
5.5712
 30
0
 70
     0
  0
VERTEX
  8
LAYER1
 10
0.75
 20
5.5712
 30
0
 70
     0
  0
VERTEX
  8
LAYER1
 10
0.7639
 20
5.5712
 30
0
 70
     0
  0
VERTEX
  8
LAYER1
 10
0.7917
 20
5.5712
 30
0
 70
     0
  0
VERTEX
  8
LAYER1
 10
0.8194
 20
5.5573
 30
0
 70
     0
  0
VERTEX
  8
LAYER1
 10
0.8472
 20
5.5434
 30
0
 70
     0
  0
VERTEX
  8
LAYER1
 10
0.8611
 20
5.5295
 30
0
 70
     0
  0
VERTEX
  8
LAYER1
 10
0.875
 20
5.5156
 30
0
 70
     0
  0
VERTEX
  8
LAYER1
 10
0.8889
 20
5.4878
 30
0
 70
     0
  0
VERTEX
  8
LAYER1
 10
0.9028
 20
5.4601
 30
0
 70
     0
  0
VERTEX
  8
LAYER1
 10
0.9028
 20
5.4462
 30
0
 70
     0
  0
VERTEX
  8
LAYER1
 10
0.9028
 20
5.4323
 30
0
 70
     0
  0
SEQEND
  0
LINE
  8
LAYER1
  6
CONTINUOUS
 62
     7
 10
0.9028
 20
5.4323
 30
0
 11
1.0417
 21
5.4323
 31
0
  0
ENDBLK
  8
LAYER1
  0
BLOCK
  8
LAYER1
  2
Group38
 70
     0
 10
0
 20
0
 30
0
  0
LINE
  8
LAYER1
  6
CONTINUOUS
 62
     7
 10
0.9028
 20
5.4045
 30
0
 11
1.0417
 21
5.4045
 31
0
  0
LINE
  8
LAYER1
  6
CONTINUOUS
 62
     7
 10
1.2639
 20
5.7101
 30
0
 11
1.2639
 21
5.1267
 31
0
  0
LINE
  8
LAYER1
  6
CONTINUOUS
 62
     7
 10
1.1806
 20
5.1267
 30
0
 11
1.1806
 21
5.7101
 31
0
  0
POLYLINE
  8
LAYER1
  6
CONTINUOUS
 62
     7
 66
     1
 70
     0
 40
0.0039
 41
0.0039
  0
VERTEX
  8
LAYER1
 10
1.1528
 20
5.4323
 30
0
 70
     0
  0
VERTEX
  8
LAYER1
 10
1.2222
 20
5.4323
 30
0
 70
     0
  0
VERTEX
  8
LAYER1
 10
1.2639
 20
5.7101
 30
0
 70
     0
  0
VERTEX
  8
LAYER1
 10
1.1806
 20
5.7101
 30
0
 70
     0
  0
VERTEX
  8
LAYER1
 10
1.1528
 20
5.4323
 30
0
 70
     0
  0
SEQEND
  0
POLYLINE
  8
LAYER1
  6
CONTINUOUS
 62
     7
 66
     1
 70
     0
 40
0.0039
 41
0.0039
  0
VERTEX
  8
LAYER1
 10
1.2917
 20
5.4045
 30
0
 70
     0
  0
VERTEX
  8
LAYER1
 10
1.2222
 20
5.4045
 30
0
 70
     0
  0
VERTEX
  8
LAYER1
 10
1.1806
 20
5.1267
 30
0
 70
     0
  0
VERTEX
  8
LAYER1
 10
1.2639
 20
5.1267
 30
0
 70
     0
  0
VERTEX
  8
LAYER1
 10
1.2917
 20
5.4045
 30
0
 70
     0
  0
SEQEND
  0
ENDBLK
  8
LAYER1
  0
BLOCK
  8
LAYER1
  2
Group39
 70
     0
 10
0
 20
0
 30
0
  0
LINE
  8
LAYER1
  6
CONTINUOUS
 62
     7
 10
1.4167
 20
5.4184
 30
0
 11
1.4861
 21
5.4323
 31
0
  0
LINE
  8
LAYER1
  6
CONTINUOUS
 62
     7
 10
1.4861
 20
5.4045
 30
0
 11
1.4167
 21
5.4045
 31
0
  0
POLYLINE
  8
LAYER1
  6
CONTINUOUS
 62
     7
 66
     1
 70
     0
 40
0.0039
 41
0.0039
  0
VERTEX
  8
LAYER1
 10
1.4514
 20
5.7101
 30
0
 70
     0
  0
VERTEX
  8
LAYER1
 10
1.4432
 20
5.7055
 30
0
 70
     0
  0
VERTEX
  8
LAYER1
 10
1.4362
 20
5.6918
 30
0
 70
     0
  0
VERTEX
  8
LAYER1
 10
1.4302
 20
5.6691
 30
0
 70
     0
  0
VERTEX
  8
LAYER1
 10
1.4253
 20
5.6372
 30
0
 70
     0
  0
VERTEX
  8
LAYER1
 10
1.4216
 20
5.5961
 30
0
 70
     0
  0
VERTEX
  8
LAYER1
 10
1.4188
 20
5.546
 30
0
 70
     0
  0
VERTEX
  8
LAYER1
 10
1.4172
 20
5.4868
 30
0
 70
     0
  0
VERTEX
  8
LAYER1
 10
1.4167
 20
5.4184
 30
0
 70
     0
  0
VERTEX
  8
LAYER1
 10
1.4167
 20
5.4184
 30
0
 70
     0
  0
VERTEX
  8
LAYER1
 10
1.4172
 20
5.35
 30
0
 70
     0
  0
VERTEX
  8
LAYER1
 10
1.4188
 20
5.2908
 30
0
 70
     0
  0
VERTEX
  8
LAYER1
 10
1.4216
 20
5.2407
 30
0
 70
     0
  0
VERTEX
  8
LAYER1
 10
1.4253
 20
5.1997
 30
0
 70
     0
  0
VERTEX
  8
LAYER1
 10
1.4302
 20
5.1678
 30
0
 70
     0
  0
VERTEX
  8
LAYER1
 10
1.4362
 20
5.145
 30
0
 70
     0
  0
VERTEX
  8
LAYER1
 10
1.4432
 20
5.1313
 30
0
 70
     0
  0
VERTEX
  8
LAYER1
 10
1.4514
 20
5.1267
 30
0
 70
     0
  0
VERTEX
  8
LAYER1
 10
1.4514
 20
5.1267
 30
0
 70
     0
  0
VERTEX
  8
LAYER1
 10
1.4595
 20
5.1313
 30
0
 70
     0
  0
VERTEX
  8
LAYER1
 10
1.4666
 20
5.145
 30
0
 70
     0
  0
VERTEX
  8
LAYER1
 10
1.4725
 20
5.1678
 30
0
 70
     0
  0
VERTEX
  8
LAYER1
 10
1.4774
 20
5.1997
 30
0
 70
     0
  0
VERTEX
  8
LAYER1
 10
1.4812
 20
5.2407
 30
0
 70
     0
  0
VERTEX
  8
LAYER1
 10
1.4839
 20
5.2908
 30
0
 70
     0
  0
VERTEX
  8
LAYER1
 10
1.4856
 20
5.35
 30
0
 70
     0
  0
VERTEX
  8
LAYER1
 10
1.4861
 20
5.4184
 30
0
 70
     0
  0
VERTEX
  8
LAYER1
 10
1.4861
 20
5.4184
 30
0
 70
     0
  0
VERTEX
  8
LAYER1
 10
1.4856
 20
5.4868
 30
0
 70
     0
  0
VERTEX
  8
LAYER1
 10
1.4839
 20
5.546
 30
0
 70
     0
  0
VERTEX
  8
LAYER1
 10
1.4812
 20
5.5961
 30
0
 70
     0
  0
VERTEX
  8
LAYER1
 10
1.4774
 20
5.6372
 30
0
 70
     0
  0
VERTEX
  8
LAYER1
 10
1.4725
 20
5.6691
 30
0
 70
     0
  0
VERTEX
  8
LAYER1
 10
1.4666
 20
5.6918
 30
0
 70
     0
  0
VERTEX
  8
LAYER1
 10
1.4595
 20
5.7055
 30
0
 70
     0
  0
VERTEX
  8
LAYER1
 10
1.4514
 20
5.7101
 30
0
 70
     0
  0
SEQEND
  0
ENDBLK
  8
LAYER1
  0
BLOCK
  8
LAYER1
  2
Group40
 70
     0
 10
0
 20
0
 30
0
  0
POLYLINE
  8
LAYER1
  6
CONTINUOUS
 62
     7
 66
     1
 70
     0
 40
0.0039
 41
0.0039
  0
VERTEX
  8
LAYER1
 10
4.0694
 20
6.8906
 30
0
 70
     0
  0
VERTEX
  8
LAYER1
 10
4.0694
 20
6.8628
 30
0
 70
     0
  0
VERTEX
  8
LAYER1
 10
4.0556
 20
6.8212
 30
0
 70
     0
  0
VERTEX
  8
LAYER1
 10
4.0417
 20
6.7795
 30
0
 70
     0
  0
VERTEX
  8
LAYER1
 10
4.0139
 20
6.7517
 30
0
 70
     0
  0
VERTEX
  8
LAYER1
 10
4
 20
6.7378
 30
0
 70
     0
  0
VERTEX
  8
LAYER1
 10
3.9861
 20
6.724
 30
0
 70
     0
  0
VERTEX
  8
LAYER1
 10
3.9444
 20
6.6962
 30
0
 70
     0
  0
VERTEX
  8
LAYER1
 10
3.9028
 20
6.6823
 30
0
 70
     0
  0
VERTEX
  8
LAYER1
 10
3.8472
 20
6.6684
 30
0
 70
     0
  0
VERTEX
  8
LAYER1
 10
3.8194
 20
6.6684
 30
0
 70
     0
  0
VERTEX
  8
LAYER1
 10
3.7917
 20
6.6684
 30
0
 70
     0
  0
VERTEX
  8
LAYER1
 10
3.75
 20
6.6823
 30
0
 70
     0
  0
VERTEX
  8
LAYER1
 10
3.7083
 20
6.6962
 30
0
 70
     0
  0
VERTEX
  8
LAYER1
 10
3.6667
 20
6.724
 30
0
 70
     0
  0
VERTEX
  8
LAYER1
 10
3.6528
 20
6.7378
 30
0
 70
     0
  0
VERTEX
  8
LAYER1
 10
3.6389
 20
6.7517
 30
0
 70
     0
  0
VERTEX
  8
LAYER1
 10
3.6111
 20
6.7934
 30
0
 70
     0
  0
VERTEX
  8
LAYER1
 10
3.5972
 20
6.8351
 30
0
 70
     0
  0
VERTEX
  8
LAYER1
 10
3.5833
 20
6.8767
 30
0
 70
     0
  0
VERTEX
  8
LAYER1
 10
3.5833
 20
6.9045
 30
0
 70
     0
  0
VERTEX
  8
LAYER1
 10
3.5833
 20
6.9323
 30
0
 70
     0
  0
VERTEX
  8
LAYER1
 10
3.5972
 20
6.9878
 30
0
 70
     0
  0
VERTEX
  8
LAYER1
 10
3.6111
 20
7.0295
 30
0
 70
     0
  0
VERTEX
  8
LAYER1
 10
3.6389
 20
7.0712
 30
0
 70
     0
  0
VERTEX
  8
LAYER1
 10
3.6528
 20
7.0851
 30
0
 70
     0
  0
VERTEX
  8
LAYER1
 10
3.6667
 20
7.099
 30
0
 70
     0
  0
VERTEX
  8
LAYER1
 10
3.7083
 20
7.1267
 30
0
 70
     0
  0
VERTEX
  8
LAYER1
 10
3.75
 20
7.1406
 30
0
 70
     0
  0
VERTEX
  8
LAYER1
 10
3.7917
 20
7.1545
 30
0
 70
     0
  0
VERTEX
  8
LAYER1
 10
3.8194
 20
7.1545
 30
0
 70
     0
  0
VERTEX
  8
LAYER1
 10
3.8472
 20
7.1545
 30
0
 70
     0
  0
VERTEX
  8
LAYER1
 10
3.9028
 20
7.1406
 30
0
 70
     0
  0
VERTEX
  8
LAYER1
 10
3.9444
 20
7.1267
 30
0
 70
     0
  0
VERTEX
  8
LAYER1
 10
3.9861
 20
7.099
 30
0
 70
     0
  0
VERTEX
  8
LAYER1
 10
4
 20
7.0851
 30
0
 70
     0
  0
VERTEX
  8
LAYER1
 10
4.0139
 20
7.0712
 30
0
 70
     0
  0
VERTEX
  8
LAYER1
 10
4.0417
 20
7.0295
 30
0
 70
     0
  0
VERTEX
  8
LAYER1
 10
4.0556
 20
6.9878
 30
0
 70
     0
  0
VERTEX
  8
LAYER1
 10
4.0694
 20
6.9462
 30
0
 70
     0
  0
VERTEX
  8
LAYER1
 10
4.0694
 20
6.9184
 30
0
 70
     0
  0
SEQEND
  0
POLYLINE
  8
LAYER1
  6
CONTINUOUS
 62
     7
 66
     1
 70
     0
 40
0.0039
 41
0.0039
  0
VERTEX
  8
LAYER1
 10
3.9583
 20
6.8906
 30
0
 70
     0
  0
VERTEX
  8
LAYER1
 10
3.9583
 20
6.8767
 30
0
 70
     0
  0
VERTEX
  8
LAYER1
 10
3.9306
 20
6.8351
 30
0
 70
     0
  0
VERTEX
  8
LAYER1
 10
3.9167
 20
6.8212
 30
0
 70
     0
  0
VERTEX
  8
LAYER1
 10
3.9028
 20
6.8073
 30
0
 70
     0
  0
VERTEX
  8
LAYER1
 10
3.875
 20
6.7934
 30
0
 70
     0
  0
VERTEX
  8
LAYER1
 10
3.8472
 20
6.7795
 30
0
 70
     0
  0
VERTEX
  8
LAYER1
 10
3.8333
 20
6.7795
 30
0
 70
     0
  0
VERTEX
  8
LAYER1
 10
3.8194
 20
6.7795
 30
0
 70
     0
  0
VERTEX
  8
LAYER1
 10
3.8056
 20
6.7795
 30
0
 70
     0
  0
VERTEX
  8
LAYER1
 10
3.7917
 20
6.7795
 30
0
 70
     0
  0
VERTEX
  8
LAYER1
 10
3.7778
 20
6.7934
 30
0
 70
     0
  0
VERTEX
  8
LAYER1
 10
3.75
 20
6.8073
 30
0
 70
     0
  0
VERTEX
  8
LAYER1
 10
3.7361
 20
6.8212
 30
0
 70
     0
  0
VERTEX
  8
LAYER1
 10
3.7361
 20
6.8212
 30
0
 70
     0
  0
VERTEX
  8
LAYER1
 10
3.7083
 20
6.849
 30
0
 70
     0
  0
VERTEX
  8
LAYER1
 10
3.6944
 20
6.8767
 30
0
 70
     0
  0
VERTEX
  8
LAYER1
 10
3.6944
 20
6.8906
 30
0
 70
     0
  0
VERTEX
  8
LAYER1
 10
3.6944
 20
6.9045
 30
0
 70
     0
  0
VERTEX
  8
LAYER1
 10
3.6944
 20
6.9184
 30
0
 70
     0
  0
VERTEX
  8
LAYER1
 10
3.6944
 20
6.9323
 30
0
 70
     0
  0
VERTEX
  8
LAYER1
 10
3.7083
 20
6.9601
 30
0
 70
     0
  0
VERTEX
  8
LAYER1
 10
3.7222
 20
6.9878
 30
0
 70
     0
  0
VERTEX
  8
LAYER1
 10
3.7361
 20
7.0017
 30
0
 70
     0
  0
VERTEX
  8
LAYER1
 10
3.7639
 20
7.0156
 30
0
 70
     0
  0
VERTEX
  8
LAYER1
 10
3.8056
 20
7.0295
 30
0
 70
     0
  0
VERTEX
  8
LAYER1
 10
3.8194
 20
7.0295
 30
0
 70
     0
  0
VERTEX
  8
LAYER1
 10
3.8472
 20
7.0295
 30
0
 70
     0
  0
VERTEX
  8
LAYER1
 10
3.9028
 20
7.0156
 30
0
 70
     0
  0
VERTEX
  8
LAYER1
 10
3.9167
 20
7.0017
 30
0
 70
     0
  0
VERTEX
  8
LAYER1
 10
3.9306
 20
6.974
 30
0
 70
     0
  0
VERTEX
  8
LAYER1
 10
3.9583
 20
6.9323
 30
0
 70
     0
  0
VERTEX
  8
LAYER1
 10
3.9583
 20
6.9184
 30
0
 70
     0
  0
SEQEND
  0
LINE
  8
LAYER1
  6
CONTINUOUS
 62
     7
 10
3.9583
 20
6.9184
 30
0
 11
4.0694
 21
6.9184
 31
0
  0
ENDBLK
  8
LAYER1
  0
BLOCK
  8
LAYER1
  2
Group41
 70
     0
 10
0
 20
0
 30
0
  0
LINE
  8
LAYER1
  6
CONTINUOUS
 62
     7
 10
3.9583
 20
6.8906
 30
0
 11
4.0694
 21
6.8906
 31
0
  0
LINE
  8
LAYER1
  6
CONTINUOUS
 62
     7
 10
4.3056
 20
7.1545
 30
0
 11
4.3056
 21
6.6684
 31
0
  0
LINE
  8
LAYER1
  6
CONTINUOUS
 62
     7
 10
4.2361
 20
6.6684
 30
0
 11
4.2361
 21
7.1545
 31
0
  0
POLYLINE
  8
LAYER1
  6
CONTINUOUS
 62
     7
 66
     1
 70
     0
 40
0.0039
 41
0.0039
  0
VERTEX
  8
LAYER1
 10
4.2083
 20
6.9184
 30
0
 70
     0
  0
VERTEX
  8
LAYER1
 10
4.2778
 20
6.9184
 30
0
 70
     0
  0
VERTEX
  8
LAYER1
 10
4.3056
 20
7.1545
 30
0
 70
     0
  0
VERTEX
  8
LAYER1
 10
4.2361
 20
7.1545
 30
0
 70
     0
  0
VERTEX
  8
LAYER1
 10
4.2083
 20
6.9184
 30
0
 70
     0
  0
SEQEND
  0
POLYLINE
  8
LAYER1
  6
CONTINUOUS
 62
     7
 66
     1
 70
     0
 40
0.0039
 41
0.0039
  0
VERTEX
  8
LAYER1
 10
4.3333
 20
6.8906
 30
0
 70
     0
  0
VERTEX
  8
LAYER1
 10
4.2639
 20
6.8906
 30
0
 70
     0
  0
VERTEX
  8
LAYER1
 10
4.2361
 20
6.6684
 30
0
 70
     0
  0
VERTEX
  8
LAYER1
 10
4.3056
 20
6.6684
 30
0
 70
     0
  0
VERTEX
  8
LAYER1
 10
4.3333
 20
6.8906
 30
0
 70
     0
  0
SEQEND
  0
ENDBLK
  8
LAYER1
  0
BLOCK
  8
LAYER1
  2
Group42
 70
     0
 10
0
 20
0
 30
0
  0
LINE
  8
LAYER1
  6
CONTINUOUS
 62
     7
 10
4.4722
 20
6.9184
 30
0
 11
4.5278
 21
6.9184
 31
0
  0
LINE
  8
LAYER1
  6
CONTINUOUS
 62
     7
 10
4.5278
 20
6.9045
 30
0
 11
4.4722
 21
6.8906
 31
0
  0
POLYLINE
  8
LAYER1
  6
CONTINUOUS
 62
     7
 66
     1
 70
     0
 40
0.0039
 41
0.0039
  0
VERTEX
  8
LAYER1
 10
4.5
 20
7.1545
 30
0
 70
     0
  0
VERTEX
  8
LAYER1
 10
4.4935
 20
7.1507
 30
0
 70
     0
  0
VERTEX
  8
LAYER1
 10
4.4878
 20
7.1393
 30
0
 70
     0
  0
VERTEX
  8
LAYER1
 10
4.4831
 20
7.1203
 30
0
 70
     0
  0
VERTEX
  8
LAYER1
 10
4.4792
 20
7.0937
 30
0
 70
     0
  0
VERTEX
  8
LAYER1
 10
4.4761
 20
7.0596
 30
0
 70
     0
  0
VERTEX
  8
LAYER1
 10
4.4739
 20
7.0178
 30
0
 70
     0
  0
VERTEX
  8
LAYER1
 10
4.4727
 20
6.9684
 30
0
 70
     0
  0
VERTEX
  8
LAYER1
 10
4.4722
 20
6.9115
 30
0
 70
     0
  0
VERTEX
  8
LAYER1
 10
4.4722
 20
6.9115
 30
0
 70
     0
  0
VERTEX
  8
LAYER1
 10
4.4727
 20
6.8545
 30
0
 70
     0
  0
VERTEX
  8
LAYER1
 10
4.4739
 20
6.8051
 30
0
 70
     0
  0
VERTEX
  8
LAYER1
 10
4.4761
 20
6.7633
 30
0
 70
     0
  0
VERTEX
  8
LAYER1
 10
4.4792
 20
6.7292
 30
0
 70
     0
  0
VERTEX
  8
LAYER1
 10
4.4831
 20
6.7026
 30
0
 70
     0
  0
VERTEX
  8
LAYER1
 10
4.4878
 20
6.6836
 30
0
 70
     0
  0
VERTEX
  8
LAYER1
 10
4.4935
 20
6.6722
 30
0
 70
     0
  0
VERTEX
  8
LAYER1
 10
4.5
 20
6.6684
 30
0
 70
     0
  0
VERTEX
  8
LAYER1
 10
4.5
 20
6.6684
 30
0
 70
     0
  0
VERTEX
  8
LAYER1
 10
4.5065
 20
6.6722
 30
0
 70
     0
  0
VERTEX
  8
LAYER1
 10
4.5121
 20
6.6836
 30
0
 70
     0
  0
VERTEX
  8
LAYER1
 10
4.5169
 20
6.7026
 30
0
 70
     0
  0
VERTEX
  8
LAYER1
 10
4.5208
 20
6.7292
 30
0
 70
     0
  0
VERTEX
  8
LAYER1
 10
4.5239
 20
6.7633
 30
0
 70
     0
  0
VERTEX
  8
LAYER1
 10
4.526
 20
6.8051
 30
0
 70
     0
  0
VERTEX
  8
LAYER1
 10
4.5273
 20
6.8545
 30
0
 70
     0
  0
VERTEX
  8
LAYER1
 10
4.5278
 20
6.9115
 30
0
 70
     0
  0
VERTEX
  8
LAYER1
 10
4.5278
 20
6.9115
 30
0
 70
     0
  0
VERTEX
  8
LAYER1
 10
4.5273
 20
6.9684
 30
0
 70
     0
  0
VERTEX
  8
LAYER1
 10
4.526
 20
7.0178
 30
0
 70
     0
  0
VERTEX
  8
LAYER1
 10
4.5239
 20
7.0596
 30
0
 70
     0
  0
VERTEX
  8
LAYER1
 10
4.5208
 20
7.0937
 30
0
 70
     0
  0
VERTEX
  8
LAYER1
 10
4.5169
 20
7.1203
 30
0
 70
     0
  0
VERTEX
  8
LAYER1
 10
4.5121
 20
7.1393
 30
0
 70
     0
  0
VERTEX
  8
LAYER1
 10
4.5065
 20
7.1507
 30
0
 70
     0
  0
VERTEX
  8
LAYER1
 10
4.5
 20
7.1545
 30
0
 70
     0
  0
SEQEND
  0
ENDBLK
  8
LAYER1
  0
BLOCK
  8
LAYER1
  2
Group43
 70
     0
 10
0
 20
0
 30
0
  0
POLYLINE
  8
LAYER1
  6
CONTINUOUS
 62
     7
 66
     1
 70
     0
 40
0.0039
 41
0.0039
  0
VERTEX
  8
LAYER1
 10
2.5278
 20
6.8906
 30
0
 70
     0
  0
VERTEX
  8
LAYER1
 10
2.5278
 20
6.8628
 30
0
 70
     0
  0
VERTEX
  8
LAYER1
 10
2.5
 20
6.8073
 30
0
 70
     0
  0
VERTEX
  8
LAYER1
 10
2.4722
 20
6.7795
 30
0
 70
     0
  0
VERTEX
  8
LAYER1
 10
2.4583
 20
6.7656
 30
0
 70
     0
  0
VERTEX
  8
LAYER1
 10
2.4167
 20
6.7378
 30
0
 70
     0
  0
VERTEX
  8
LAYER1
 10
2.3889
 20
6.724
 30
0
 70
     0
  0
VERTEX
  8
LAYER1
 10
2.3611
 20
6.724
 30
0
 70
     0
  0
VERTEX
  8
LAYER1
 10
2.3333
 20
6.724
 30
0
 70
     0
  0
VERTEX
  8
LAYER1
 10
2.3194
 20
6.724
 30
0
 70
     0
  0
VERTEX
  8
LAYER1
 10
2.2917
 20
6.724
 30
0
 70
     0
  0
VERTEX
  8
LAYER1
 10
2.2639
 20
6.7378
 30
0
 70
     0
  0
VERTEX
  8
LAYER1
 10
2.2222
 20
6.7656
 30
0
 70
     0
  0
VERTEX
  8
LAYER1
 10
2.2083
 20
6.7795
 30
0
 70
     0
  0
VERTEX
  8
LAYER1
 10
2.1944
 20
6.7934
 30
0
 70
     0
  0
VERTEX
  8
LAYER1
 10
2.1806
 20
6.8212
 30
0
 70
     0
  0
VERTEX
  8
LAYER1
 10
2.1667
 20
6.849
 30
0
 70
     0
  0
VERTEX
  8
LAYER1
 10
2.1528
 20
6.8906
 30
0
 70
     0
  0
VERTEX
  8
LAYER1
 10
2.1528
 20
6.9045
 30
0
 70
     0
  0
VERTEX
  8
LAYER1
 10
2.1528
 20
6.9184
 30
0
 70
     0
  0
VERTEX
  8
LAYER1
 10
2.1667
 20
6.974
 30
0
 70
     0
  0
VERTEX
  8
LAYER1
 10
2.1806
 20
7.0017
 30
0
 70
     0
  0
VERTEX
  8
LAYER1
 10
2.1944
 20
7.0295
 30
0
 70
     0
  0
VERTEX
  8
LAYER1
 10
2.2083
 20
7.0434
 30
0
 70
     0
  0
VERTEX
  8
LAYER1
 10
2.2222
 20
7.0573
 30
0
 70
     0
  0
VERTEX
  8
LAYER1
 10
2.25
 20
7.0712
 30
0
 70
     0
  0
VERTEX
  8
LAYER1
 10
2.2778
 20
7.0851
 30
0
 70
     0
  0
VERTEX
  8
LAYER1
 10
2.3194
 20
7.099
 30
0
 70
     0
  0
VERTEX
  8
LAYER1
 10
2.3333
 20
7.099
 30
0
 70
     0
  0
VERTEX
  8
LAYER1
 10
2.3611
 20
7.099
 30
0
 70
     0
  0
VERTEX
  8
LAYER1
 10
2.4028
 20
7.0851
 30
0
 70
     0
  0
VERTEX
  8
LAYER1
 10
2.4306
 20
7.0712
 30
0
 70
     0
  0
VERTEX
  8
LAYER1
 10
2.4583
 20
7.0573
 30
0
 70
     0
  0
VERTEX
  8
LAYER1
 10
2.4722
 20
7.0434
 30
0
 70
     0
  0
VERTEX
  8
LAYER1
 10
2.5
 20
7.0156
 30
0
 70
     0
  0
VERTEX
  8
LAYER1
 10
2.5278
 20
6.9462
 30
0
 70
     0
  0
VERTEX
  8
LAYER1
 10
2.5278
 20
6.9184
 30
0
 70
     0
  0
SEQEND
  0
POLYLINE
  8
LAYER1
  6
CONTINUOUS
 62
     7
 66
     1
 70
     0
 40
0.0039
 41
0.0039
  0
VERTEX
  8
LAYER1
 10
2.4444
 20
6.8906
 30
0
 70
     0
  0
VERTEX
  8
LAYER1
 10
2.4444
 20
6.8767
 30
0
 70
     0
  0
VERTEX
  8
LAYER1
 10
2.4306
 20
6.849
 30
0
 70
     0
  0
VERTEX
  8
LAYER1
 10
2.4167
 20
6.8351
 30
0
 70
     0
  0
VERTEX
  8
LAYER1
 10
2.4167
 20
6.8351
 30
0
 70
     0
  0
VERTEX
  8
LAYER1
 10
2.3889
 20
6.8073
 30
0
 70
     0
  0
VERTEX
  8
LAYER1
 10
2.3611
 20
6.7934
 30
0
 70
     0
  0
VERTEX
  8
LAYER1
 10
2.3472
 20
6.7934
 30
0
 70
     0
  0
VERTEX
  8
LAYER1
 10
2.3333
 20
6.7934
 30
0
 70
     0
  0
VERTEX
  8
LAYER1
 10
2.3194
 20
6.7934
 30
0
 70
     0
  0
VERTEX
  8
LAYER1
 10
2.3056
 20
6.7934
 30
0
 70
     0
  0
VERTEX
  8
LAYER1
 10
2.2917
 20
6.8073
 30
0
 70
     0
  0
VERTEX
  8
LAYER1
 10
2.2778
 20
6.8212
 30
0
 70
     0
  0
VERTEX
  8
LAYER1
 10
2.2639
 20
6.8351
 30
0
 70
     0
  0
VERTEX
  8
LAYER1
 10
2.2639
 20
6.8351
 30
0
 70
     0
  0
VERTEX
  8
LAYER1
 10
2.2361
 20
6.8628
 30
0
 70
     0
  0
VERTEX
  8
LAYER1
 10
2.2222
 20
6.8767
 30
0
 70
     0
  0
VERTEX
  8
LAYER1
 10
2.2222
 20
6.8906
 30
0
 70
     0
  0
VERTEX
  8
LAYER1
 10
2.2222
 20
6.9045
 30
0
 70
     0
  0
VERTEX
  8
LAYER1
 10
2.2222
 20
6.9184
 30
0
 70
     0
  0
VERTEX
  8
LAYER1
 10
2.2222
 20
6.9323
 30
0
 70
     0
  0
VERTEX
  8
LAYER1
 10
2.2361
 20
6.9462
 30
0
 70
     0
  0
VERTEX
  8
LAYER1
 10
2.25
 20
6.974
 30
0
 70
     0
  0
VERTEX
  8
LAYER1
 10
2.2639
 20
6.9878
 30
0
 70
     0
  0
VERTEX
  8
LAYER1
 10
2.2778
 20
7.0017
 30
0
 70
     0
  0
VERTEX
  8
LAYER1
 10
2.3194
 20
7.0156
 30
0
 70
     0
  0
VERTEX
  8
LAYER1
 10
2.3333
 20
7.0156
 30
0
 70
     0
  0
VERTEX
  8
LAYER1
 10
2.3611
 20
7.0156
 30
0
 70
     0
  0
VERTEX
  8
LAYER1
 10
2.4028
 20
7.0017
 30
0
 70
     0
  0
VERTEX
  8
LAYER1
 10
2.4167
 20
6.9878
 30
0
 70
     0
  0
VERTEX
  8
LAYER1
 10
2.4306
 20
6.974
 30
0
 70
     0
  0
VERTEX
  8
LAYER1
 10
2.4444
 20
6.9323
 30
0
 70
     0
  0
VERTEX
  8
LAYER1
 10
2.4444
 20
6.9184
 30
0
 70
     0
  0
SEQEND
  0
LINE
  8
LAYER1
  6
CONTINUOUS
 62
     7
 10
2.4444
 20
6.9184
 30
0
 11
2.5278
 21
6.9184
 31
0
  0
ENDBLK
  8
LAYER1
  0
BLOCK
  8
LAYER1
  2
Group44
 70
     0
 10
0
 20
0
 30
0
  0
LINE
  8
LAYER1
  6
CONTINUOUS
 62
     7
 10
2.4444
 20
6.8906
 30
0
 11
2.5278
 21
6.8906
 31
0
  0
LINE
  8
LAYER1
  6
CONTINUOUS
 62
     7
 10
2.7222
 20
7.099
 30
0
 11
2.7222
 21
6.724
 31
0
  0
LINE
  8
LAYER1
  6
CONTINUOUS
 62
     7
 10
2.6667
 20
6.724
 30
0
 11
2.6667
 21
7.099
 31
0
  0
POLYLINE
  8
LAYER1
  6
CONTINUOUS
 62
     7
 66
     1
 70
     0
 40
0.0039
 41
0.0039
  0
VERTEX
  8
LAYER1
 10
2.6389
 20
6.9184
 30
0
 70
     0
  0
VERTEX
  8
LAYER1
 10
2.6944
 20
6.9184
 30
0
 70
     0
  0
VERTEX
  8
LAYER1
 10
2.7222
 20
7.099
 30
0
 70
     0
  0
VERTEX
  8
LAYER1
 10
2.6667
 20
7.099
 30
0
 70
     0
  0
VERTEX
  8
LAYER1
 10
2.6389
 20
6.9184
 30
0
 70
     0
  0
SEQEND
  0
POLYLINE
  8
LAYER1
  6
CONTINUOUS
 62
     7
 66
     1
 70
     0
 40
0.0039
 41
0.0039
  0
VERTEX
  8
LAYER1
 10
2.7361
 20
6.8906
 30
0
 70
     0
  0
VERTEX
  8
LAYER1
 10
2.6806
 20
6.8906
 30
0
 70
     0
  0
VERTEX
  8
LAYER1
 10
2.6667
 20
6.724
 30
0
 70
     0
  0
VERTEX
  8
LAYER1
 10
2.7222
 20
6.724
 30
0
 70
     0
  0
VERTEX
  8
LAYER1
 10
2.7361
 20
6.8906
 30
0
 70
     0
  0
SEQEND
  0
ENDBLK
  8
LAYER1
  0
BLOCK
  8
LAYER1
  2
Group45
 70
     0
 10
0
 20
0
 30
0
  0
LINE
  8
LAYER1
  6
CONTINUOUS
 62
     7
 10
2.8889
 20
6.9184
 30
0
 11
2.9444
 21
6.9184
 31
0
  0
LINE
  8
LAYER1
  6
CONTINUOUS
 62
     7
 10
2.9444
 20
6.9045
 30
0
 11
2.8889
 21
6.8906
 31
0
  0
POLYLINE
  8
LAYER1
  6
CONTINUOUS
 62
     7
 66
     1
 70
     0
 40
0.0039
 41
0.0039
  0
VERTEX
  8
LAYER1
 10
2.9167
 20
7.099
 30
0
 70
     0
  0
VERTEX
  8
LAYER1
 10
2.9045
 20
7.0872
 30
0
 70
     0
  0
VERTEX
  8
LAYER1
 10
2.8958
 20
7.0521
 30
0
 70
     0
  0
VERTEX
  8
LAYER1
 10
2.8906
 20
6.9935
 30
0
 70
     0
  0
VERTEX
  8
LAYER1
 10
2.8889
 20
6.9115
 30
0
 70
     0
  0
VERTEX
  8
LAYER1
 10
2.8889
 20
6.9115
 30
0
 70
     0
  0
VERTEX
  8
LAYER1
 10
2.8906
 20
6.8294
 30
0
 70
     0
  0
VERTEX
  8
LAYER1
 10
2.8958
 20
6.7708
 30
0
 70
     0
  0
VERTEX
  8
LAYER1
 10
2.9045
 20
6.7357
 30
0
 70
     0
  0
VERTEX
  8
LAYER1
 10
2.9167
 20
6.724
 30
0
 70
     0
  0
VERTEX
  8
LAYER1
 10
2.9167
 20
6.724
 30
0
 70
     0
  0
VERTEX
  8
LAYER1
 10
2.9288
 20
6.7357
 30
0
 70
     0
  0
VERTEX
  8
LAYER1
 10
2.9375
 20
6.7708
 30
0
 70
     0
  0
VERTEX
  8
LAYER1
 10
2.9427
 20
6.8294
 30
0
 70
     0
  0
VERTEX
  8
LAYER1
 10
2.9444
 20
6.9115
 30
0
 70
     0
  0
VERTEX
  8
LAYER1
 10
2.9444
 20
6.9115
 30
0
 70
     0
  0
VERTEX
  8
LAYER1
 10
2.9427
 20
6.9935
 30
0
 70
     0
  0
VERTEX
  8
LAYER1
 10
2.9375
 20
7.0521
 30
0
 70
     0
  0
VERTEX
  8
LAYER1
 10
2.9288
 20
7.0872
 30
0
 70
     0
  0
VERTEX
  8
LAYER1
 10
2.9167
 20
7.099
 30
0
 70
     0
  0
SEQEND
  0
ENDBLK
  8
LAYER1
  0
BLOCK
  8
LAYER1
  2
Group46
 70
     0
 10
0
 20
0
 30
0
  0
POLYLINE
  8
LAYER1
  6
CONTINUOUS
 62
     7
 66
     1
 70
     0
 40
0.0039
 41
0.0039
  0
VERTEX
  8
LAYER1
 10
1.0417
 20
6.8906
 30
0
 70
     0
  0
VERTEX
  8
LAYER1
 10
1.0417
 20
6.8767
 30
0
 70
     0
  0
VERTEX
  8
LAYER1
 10
1.0417
 20
6.849
 30
0
 70
     0
  0
VERTEX
  8
LAYER1
 10
1.0278
 20
6.8212
 30
0
 70
     0
  0
VERTEX
  8
LAYER1
 10
1
 20
6.7934
 30
0
 70
     0
  0
VERTEX
  8
LAYER1
 10
0.9861
 20
6.7795
 30
0
 70
     0
  0
VERTEX
  8
LAYER1
 10
0.9722
 20
6.7656
 30
0
 70
     0
  0
VERTEX
  8
LAYER1
 10
0.9444
 20
6.7517
 30
0
 70
     0
  0
VERTEX
  8
LAYER1
 10
0.9167
 20
6.7378
 30
0
 70
     0
  0
VERTEX
  8
LAYER1
 10
0.8889
 20
6.7378
 30
0
 70
     0
  0
VERTEX
  8
LAYER1
 10
0.875
 20
6.7378
 30
0
 70
     0
  0
VERTEX
  8
LAYER1
 10
0.8611
 20
6.7378
 30
0
 70
     0
  0
VERTEX
  8
LAYER1
 10
0.8333
 20
6.7378
 30
0
 70
     0
  0
VERTEX
  8
LAYER1
 10
0.8056
 20
6.7517
 30
0
 70
     0
  0
VERTEX
  8
LAYER1
 10
0.7639
 20
6.7656
 30
0
 70
     0
  0
VERTEX
  8
LAYER1
 10
0.75
 20
6.7795
 30
0
 70
     0
  0
VERTEX
  8
LAYER1
 10
0.7361
 20
6.7934
 30
0
 70
     0
  0
VERTEX
  8
LAYER1
 10
0.7222
 20
6.8351
 30
0
 70
     0
  0
VERTEX
  8
LAYER1
 10
0.7083
 20
6.8628
 30
0
 70
     0
  0
VERTEX
  8
LAYER1
 10
0.7083
 20
6.8906
 30
0
 70
     0
  0
VERTEX
  8
LAYER1
 10
0.7083
 20
6.9045
 30
0
 70
     0
  0
VERTEX
  8
LAYER1
 10
0.7083
 20
6.9184
 30
0
 70
     0
  0
VERTEX
  8
LAYER1
 10
0.7083
 20
6.9462
 30
0
 70
     0
  0
VERTEX
  8
LAYER1
 10
0.7222
 20
6.974
 30
0
 70
     0
  0
VERTEX
  8
LAYER1
 10
0.7361
 20
7.0017
 30
0
 70
     0
  0
VERTEX
  8
LAYER1
 10
0.75
 20
7.0156
 30
0
 70
     0
  0
VERTEX
  8
LAYER1
 10
0.7639
 20
7.0295
 30
0
 70
     0
  0
VERTEX
  8
LAYER1
 10
0.7917
 20
7.0434
 30
0
 70
     0
  0
VERTEX
  8
LAYER1
 10
0.8194
 20
7.0573
 30
0
 70
     0
  0
VERTEX
  8
LAYER1
 10
0.8611
 20
7.0712
 30
0
 70
     0
  0
VERTEX
  8
LAYER1
 10
0.875
 20
7.0712
 30
0
 70
     0
  0
VERTEX
  8
LAYER1
 10
0.8889
 20
7.0712
 30
0
 70
     0
  0
VERTEX
  8
LAYER1
 10
0.9306
 20
7.0573
 30
0
 70
     0
  0
VERTEX
  8
LAYER1
 10
0.9583
 20
7.0434
 30
0
 70
     0
  0
VERTEX
  8
LAYER1
 10
0.9722
 20
7.0295
 30
0
 70
     0
  0
VERTEX
  8
LAYER1
 10
0.9861
 20
7.0156
 30
0
 70
     0
  0
VERTEX
  8
LAYER1
 10
1
 20
7.0017
 30
0
 70
     0
  0
VERTEX
  8
LAYER1
 10
1.0278
 20
6.974
 30
0
 70
     0
  0
VERTEX
  8
LAYER1
 10
1.0417
 20
6.9462
 30
0
 70
     0
  0
VERTEX
  8
LAYER1
 10
1.0417
 20
6.9184
 30
0
 70
     0
  0
VERTEX
  8
LAYER1
 10
1.0417
 20
6.9045
 30
0
 70
     0
  0
SEQEND
  0
POLYLINE
  8
LAYER1
  6
CONTINUOUS
 62
     7
 66
     1
 70
     0
 40
0.0039
 41
0.0039
  0
VERTEX
  8
LAYER1
 10
0.9722
 20
6.8906
 30
0
 70
     0
  0
VERTEX
  8
LAYER1
 10
0.9722
 20
6.8767
 30
0
 70
     0
  0
VERTEX
  8
LAYER1
 10
0.9583
 20
6.849
 30
0
 70
     0
  0
VERTEX
  8
LAYER1
 10
0.9444
 20
6.8351
 30
0
 70
     0
  0
VERTEX
  8
LAYER1
 10
0.9306
 20
6.8212
 30
0
 70
     0
  0
VERTEX
  8
LAYER1
 10
0.9028
 20
6.8073
 30
0
 70
     0
  0
VERTEX
  8
LAYER1
 10
0.875
 20
6.8073
 30
0
 70
     0
  0
VERTEX
  8
LAYER1
 10
0.8611
 20
6.8073
 30
0
 70
     0
  0
VERTEX
  8
LAYER1
 10
0.8194
 20
6.8212
 30
0
 70
     0
  0
VERTEX
  8
LAYER1
 10
0.8056
 20
6.8351
 30
0
 70
     0
  0
VERTEX
  8
LAYER1
 10
0.7917
 20
6.849
 30
0
 70
     0
  0
VERTEX
  8
LAYER1
 10
0.7778
 20
6.8767
 30
0
 70
     0
  0
VERTEX
  8
LAYER1
 10
0.7778
 20
6.9045
 30
0
 70
     0
  0
VERTEX
  8
LAYER1
 10
0.7778
 20
6.9184
 30
0
 70
     0
  0
VERTEX
  8
LAYER1
 10
0.7917
 20
6.9601
 30
0
 70
     0
  0
VERTEX
  8
LAYER1
 10
0.8056
 20
6.974
 30
0
 70
     0
  0
VERTEX
  8
LAYER1
 10
0.8194
 20
6.9878
 30
0
 70
     0
  0
VERTEX
  8
LAYER1
 10
0.8611
 20
7.0017
 30
0
 70
     0
  0
VERTEX
  8
LAYER1
 10
0.875
 20
7.0017
 30
0
 70
     0
  0
VERTEX
  8
LAYER1
 10
0.9028
 20
7.0017
 30
0
 70
     0
  0
VERTEX
  8
LAYER1
 10
0.9306
 20
6.9878
 30
0
 70
     0
  0
VERTEX
  8
LAYER1
 10
0.9444
 20
6.974
 30
0
 70
     0
  0
VERTEX
  8
LAYER1
 10
0.9583
 20
6.9601
 30
0
 70
     0
  0
VERTEX
  8
LAYER1
 10
0.9722
 20
6.9184
 30
0
 70
     0
  0
VERTEX
  8
LAYER1
 10
0.9722
 20
6.9045
 30
0
 70
     0
  0
SEQEND
  0
LINE
  8
LAYER1
  6
CONTINUOUS
 62
     7
 10
0.9722
 20
6.9045
 30
0
 11
1.0417
 21
6.9045
 31
0
  0
ENDBLK
  8
LAYER1
  0
BLOCK
  8
LAYER1
  2
Group47
 70
     0
 10
0
 20
0
 30
0
  0
LINE
  8
LAYER1
  6
CONTINUOUS
 62
     7
 10
0.9722
 20
6.8906
 30
0
 11
1.0417
 21
6.8906
 31
0
  0
LINE
  8
LAYER1
  6
CONTINUOUS
 62
     7
 10
1.2083
 20
7.0712
 30
0
 11
1.2083
 21
6.7378
 31
0
  0
LINE
  8
LAYER1
  6
CONTINUOUS
 62
     7
 10
1.1528
 20
6.7378
 30
0
 11
1.1528
 21
7.0712
 31
0
  0
POLYLINE
  8
LAYER1
  6
CONTINUOUS
 62
     7
 66
     1
 70
     0
 40
0.0039
 41
0.0039
  0
VERTEX
  8
LAYER1
 10
1.1389
 20
6.9045
 30
0
 70
     0
  0
VERTEX
  8
LAYER1
 10
1.1944
 20
6.9045
 30
0
 70
     0
  0
VERTEX
  8
LAYER1
 10
1.2083
 20
7.0712
 30
0
 70
     0
  0
VERTEX
  8
LAYER1
 10
1.1528
 20
7.0712
 30
0
 70
     0
  0
VERTEX
  8
LAYER1
 10
1.1389
 20
6.9045
 30
0
 70
     0
  0
SEQEND
  0
POLYLINE
  8
LAYER1
  6
CONTINUOUS
 62
     7
 66
     1
 70
     0
 40
0.0039
 41
0.0039
  0
VERTEX
  8
LAYER1
 10
1.2222
 20
6.8906
 30
0
 70
     0
  0
VERTEX
  8
LAYER1
 10
1.1806
 20
6.8906
 30
0
 70
     0
  0
VERTEX
  8
LAYER1
 10
1.1528
 20
6.7378
 30
0
 70
     0
  0
VERTEX
  8
LAYER1
 10
1.2083
 20
6.7378
 30
0
 70
     0
  0
VERTEX
  8
LAYER1
 10
1.2222
 20
6.8906
 30
0
 70
     0
  0
SEQEND
  0
ENDBLK
  8
LAYER1
  0
BLOCK
  8
LAYER1
  2
Group48
 70
     0
 10
0
 20
0
 30
0
  0
LINE
  8
LAYER1
  6
CONTINUOUS
 62
     7
 10
1.3889
 20
6.9045
 30
0
 11
1.4306
 21
6.9184
 31
0
  0
LINE
  8
LAYER1
  6
CONTINUOUS
 62
     7
 10
1.4306
 20
6.8906
 30
0
 11
1.3889
 21
6.8906
 31
0
  0
POLYLINE
  8
LAYER1
  6
CONTINUOUS
 62
     7
 66
     1
 70
     0
 40
0.0039
 41
0.0039
  0
VERTEX
  8
LAYER1
 10
1.4097
 20
7.0712
 30
0
 70
     0
  0
VERTEX
  8
LAYER1
 10
1.4006
 20
7.0608
 30
0
 70
     0
  0
VERTEX
  8
LAYER1
 10
1.3941
 20
7.0295
 30
0
 70
     0
  0
VERTEX
  8
LAYER1
 10
1.3902
 20
6.9774
 30
0
 70
     0
  0
VERTEX
  8
LAYER1
 10
1.3889
 20
6.9045
 30
0
 70
     0
  0
VERTEX
  8
LAYER1
 10
1.3889
 20
6.9045
 30
0
 70
     0
  0
VERTEX
  8
LAYER1
 10
1.3902
 20
6.8316
 30
0
 70
     0
  0
VERTEX
  8
LAYER1
 10
1.3941
 20
6.7795
 30
0
 70
     0
  0
VERTEX
  8
LAYER1
 10
1.4006
 20
6.7483
 30
0
 70
     0
  0
VERTEX
  8
LAYER1
 10
1.4097
 20
6.7378
 30
0
 70
     0
  0
VERTEX
  8
LAYER1
 10
1.4097
 20
6.7378
 30
0
 70
     0
  0
VERTEX
  8
LAYER1
 10
1.4188
 20
6.7483
 30
0
 70
     0
  0
VERTEX
  8
LAYER1
 10
1.4253
 20
6.7795
 30
0
 70
     0
  0
VERTEX
  8
LAYER1
 10
1.4293
 20
6.8316
 30
0
 70
     0
  0
VERTEX
  8
LAYER1
 10
1.4306
 20
6.9045
 30
0
 70
     0
  0
VERTEX
  8
LAYER1
 10
1.4306
 20
6.9045
 30
0
 70
     0
  0
VERTEX
  8
LAYER1
 10
1.4293
 20
6.9774
 30
0
 70
     0
  0
VERTEX
  8
LAYER1
 10
1.4253
 20
7.0295
 30
0
 70
     0
  0
VERTEX
  8
LAYER1
 10
1.4188
 20
7.0608
 30
0
 70
     0
  0
VERTEX
  8
LAYER1
 10
1.4097
 20
7.0712
 30
0
 70
     0
  0
SEQEND
  0
ENDBLK
  8
LAYER1
  0
BLOCK
  8
LAYER1
  2
Group49
 70
     0
 10
0
 20
0
 30
0
  0
POLYLINE
  8
LAYER1
  6
CONTINUOUS
 62
     7
 66
     1
 70
     0
 40
0.0039
 41
0.0039
  0
VERTEX
  8
LAYER1
 10
4.0972
 20
8.2934
 30
0
 70
     0
  0
VERTEX
  8
LAYER1
 10
4.0972
 20
8.2795
 30
0
 70
     0
  0
VERTEX
  8
LAYER1
 10
4.0972
 20
8.2656
 30
0
 70
     0
  0
VERTEX
  8
LAYER1
 10
4.0833
 20
8.2378
 30
0
 70
     0
  0
VERTEX
  8
LAYER1
 10
4.0694
 20
8.2101
 30
0
 70
     0
  0
VERTEX
  8
LAYER1
 10
4.0556
 20
8.1962
 30
0
 70
     0
  0
VERTEX
  8
LAYER1
 10
4.0417
 20
8.1823
 30
0
 70
     0
  0
VERTEX
  8
LAYER1
 10
4.0139
 20
8.1684
 30
0
 70
     0
  0
VERTEX
  8
LAYER1
 10
3.9861
 20
8.1545
 30
0
 70
     0
  0
VERTEX
  8
LAYER1
 10
3.9583
 20
8.1545
 30
0
 70
     0
  0
VERTEX
  8
LAYER1
 10
3.9444
 20
8.1545
 30
0
 70
     0
  0
VERTEX
  8
LAYER1
 10
3.9306
 20
8.1545
 30
0
 70
     0
  0
VERTEX
  8
LAYER1
 10
3.9167
 20
8.1545
 30
0
 70
     0
  0
VERTEX
  8
LAYER1
 10
3.8889
 20
8.1684
 30
0
 70
     0
  0
VERTEX
  8
LAYER1
 10
3.8611
 20
8.1823
 30
0
 70
     0
  0
VERTEX
  8
LAYER1
 10
3.8472
 20
8.1962
 30
0
 70
     0
  0
VERTEX
  8
LAYER1
 10
3.8333
 20
8.2101
 30
0
 70
     0
  0
VERTEX
  8
LAYER1
 10
3.8194
 20
8.2378
 30
0
 70
     0
  0
VERTEX
  8
LAYER1
 10
3.8056
 20
8.2656
 30
0
 70
     0
  0
VERTEX
  8
LAYER1
 10
3.8056
 20
8.2934
 30
0
 70
     0
  0
VERTEX
  8
LAYER1
 10
3.8056
 20
8.3073
 30
0
 70
     0
  0
VERTEX
  8
LAYER1
 10
3.8056
 20
8.3212
 30
0
 70
     0
  0
VERTEX
  8
LAYER1
 10
3.8056
 20
8.3351
 30
0
 70
     0
  0
VERTEX
  8
LAYER1
 10
3.8194
 20
8.3628
 30
0
 70
     0
  0
VERTEX
  8
LAYER1
 10
3.8333
 20
8.3906
 30
0
 70
     0
  0
VERTEX
  8
LAYER1
 10
3.8472
 20
8.4045
 30
0
 70
     0
  0
VERTEX
  8
LAYER1
 10
3.8611
 20
8.4184
 30
0
 70
     0
  0
VERTEX
  8
LAYER1
 10
3.8889
 20
8.4323
 30
0
 70
     0
  0
VERTEX
  8
LAYER1
 10
3.9167
 20
8.4462
 30
0
 70
     0
  0
VERTEX
  8
LAYER1
 10
3.9306
 20
8.4462
 30
0
 70
     0
  0
VERTEX
  8
LAYER1
 10
3.9444
 20
8.4462
 30
0
 70
     0
  0
VERTEX
  8
LAYER1
 10
3.9583
 20
8.4462
 30
0
 70
     0
  0
VERTEX
  8
LAYER1
 10
3.9861
 20
8.4462
 30
0
 70
     0
  0
VERTEX
  8
LAYER1
 10
4.0139
 20
8.4323
 30
0
 70
     0
  0
VERTEX
  8
LAYER1
 10
4.0417
 20
8.4184
 30
0
 70
     0
  0
VERTEX
  8
LAYER1
 10
4.0556
 20
8.4045
 30
0
 70
     0
  0
VERTEX
  8
LAYER1
 10
4.0694
 20
8.3906
 30
0
 70
     0
  0
VERTEX
  8
LAYER1
 10
4.0833
 20
8.3628
 30
0
 70
     0
  0
VERTEX
  8
LAYER1
 10
4.0972
 20
8.349
 30
0
 70
     0
  0
VERTEX
  8
LAYER1
 10
4.0972
 20
8.3351
 30
0
 70
     0
  0
VERTEX
  8
LAYER1
 10
4.0972
 20
8.3212
 30
0
 70
     0
  0
SEQEND
  0
POLYLINE
  8
LAYER1
  6
CONTINUOUS
 62
     7
 66
     1
 70
     0
 40
0.0039
 41
0.0039
  0
VERTEX
  8
LAYER1
 10
4.0278
 20
8.2934
 30
0
 70
     0
  0
VERTEX
  8
LAYER1
 10
4.0278
 20
8.2795
 30
0
 70
     0
  0
VERTEX
  8
LAYER1
 10
4.0278
 20
8.2517
 30
0
 70
     0
  0
VERTEX
  8
LAYER1
 10
4.0139
 20
8.2378
 30
0
 70
     0
  0
VERTEX
  8
LAYER1
 10
4
 20
8.224
 30
0
 70
     0
  0
VERTEX
  8
LAYER1
 10
3.9722
 20
8.224
 30
0
 70
     0
  0
VERTEX
  8
LAYER1
 10
3.9444
 20
8.224
 30
0
 70
     0
  0
VERTEX
  8
LAYER1
 10
3.9306
 20
8.224
 30
0
 70
     0
  0
VERTEX
  8
LAYER1
 10
3.9028
 20
8.224
 30
0
 70
     0
  0
VERTEX
  8
LAYER1
 10
3.8889
 20
8.2378
 30
0
 70
     0
  0
VERTEX
  8
LAYER1
 10
3.875
 20
8.2517
 30
0
 70
     0
  0
VERTEX
  8
LAYER1
 10
3.8611
 20
8.2795
 30
0
 70
     0
  0
VERTEX
  8
LAYER1
 10
3.8611
 20
8.3073
 30
0
 70
     0
  0
VERTEX
  8
LAYER1
 10
3.8611
 20
8.3212
 30
0
 70
     0
  0
VERTEX
  8
LAYER1
 10
3.875
 20
8.349
 30
0
 70
     0
  0
VERTEX
  8
LAYER1
 10
3.8889
 20
8.3628
 30
0
 70
     0
  0
VERTEX
  8
LAYER1
 10
3.9028
 20
8.3767
 30
0
 70
     0
  0
VERTEX
  8
LAYER1
 10
3.9306
 20
8.3906
 30
0
 70
     0
  0
VERTEX
  8
LAYER1
 10
3.9444
 20
8.3906
 30
0
 70
     0
  0
VERTEX
  8
LAYER1
 10
3.9722
 20
8.3906
 30
0
 70
     0
  0
VERTEX
  8
LAYER1
 10
4
 20
8.3767
 30
0
 70
     0
  0
VERTEX
  8
LAYER1
 10
4.0139
 20
8.3628
 30
0
 70
     0
  0
VERTEX
  8
LAYER1
 10
4.0278
 20
8.349
 30
0
 70
     0
  0
VERTEX
  8
LAYER1
 10
4.0278
 20
8.3351
 30
0
 70
     0
  0
VERTEX
  8
LAYER1
 10
4.0278
 20
8.3212
 30
0
 70
     0
  0
SEQEND
  0
LINE
  8
LAYER1
  6
CONTINUOUS
 62
     7
 10
4.0278
 20
8.3212
 30
0
 11
4.0972
 21
8.3212
 31
0
  0
ENDBLK
  8
LAYER1
  0
BLOCK
  8
LAYER1
  2
Group50
 70
     0
 10
0
 20
0
 30
0
  0
LINE
  8
LAYER1
  6
CONTINUOUS
 62
     7
 10
4.0278
 20
8.2934
 30
0
 11
4.0972
 21
8.2934
 31
0
  0
LINE
  8
LAYER1
  6
CONTINUOUS
 62
     7
 10
4.2778
 20
8.4462
 30
0
 11
4.2778
 21
8.1545
 31
0
  0
LINE
  8
LAYER1
  6
CONTINUOUS
 62
     7
 10
4.2361
 20
8.1545
 30
0
 11
4.2361
 21
8.4462
 31
0
  0
POLYLINE
  8
LAYER1
  6
CONTINUOUS
 62
     7
 66
     1
 70
     0
 40
0.0039
 41
0.0039
  0
VERTEX
  8
LAYER1
 10
4.2222
 20
8.3212
 30
0
 70
     0
  0
VERTEX
  8
LAYER1
 10
4.2639
 20
8.3212
 30
0
 70
     0
  0
VERTEX
  8
LAYER1
 10
4.2778
 20
8.4462
 30
0
 70
     0
  0
VERTEX
  8
LAYER1
 10
4.2361
 20
8.4462
 30
0
 70
     0
  0
VERTEX
  8
LAYER1
 10
4.2222
 20
8.3212
 30
0
 70
     0
  0
SEQEND
  0
POLYLINE
  8
LAYER1
  6
CONTINUOUS
 62
     7
 66
     1
 70
     0
 40
0.0039
 41
0.0039
  0
VERTEX
  8
LAYER1
 10
4.2917
 20
8.2934
 30
0
 70
     0
  0
VERTEX
  8
LAYER1
 10
4.25
 20
8.2934
 30
0
 70
     0
  0
VERTEX
  8
LAYER1
 10
4.2361
 20
8.1545
 30
0
 70
     0
  0
VERTEX
  8
LAYER1
 10
4.2778
 20
8.1545
 30
0
 70
     0
  0
VERTEX
  8
LAYER1
 10
4.2917
 20
8.2934
 30
0
 70
     0
  0
SEQEND
  0
ENDBLK
  8
LAYER1
  0
BLOCK
  8
LAYER1
  2
Group51
 70
     0
 10
0
 20
0
 30
0
  0
LINE
  8
LAYER1
  6
CONTINUOUS
 62
     7
 10
4.4583
 20
8.3073
 30
0
 11
4.5
 21
8.3212
 31
0
  0
LINE
  8
LAYER1
  6
CONTINUOUS
 62
     7
 10
4.5
 20
8.2934
 30
0
 11
4.4583
 21
8.2934
 31
0
  0
POLYLINE
  8
LAYER1
  6
CONTINUOUS
 62
     7
 66
     1
 70
     0
 40
0.0039
 41
0.0039
  0
VERTEX
  8
LAYER1
 10
4.4792
 20
8.4462
 30
0
 70
     0
  0
VERTEX
  8
LAYER1
 10
4.47
 20
8.4371
 30
0
 70
     0
  0
VERTEX
  8
LAYER1
 10
4.4635
 20
8.4097
 30
0
 70
     0
  0
VERTEX
  8
LAYER1
 10
4.4596
 20
8.3641
 30
0
 70
     0
  0
VERTEX
  8
LAYER1
 10
4.4583
 20
8.3003
 30
0
 70
     0
  0
VERTEX
  8
LAYER1
 10
4.4583
 20
8.3003
 30
0
 70
     0
  0
VERTEX
  8
LAYER1
 10
4.4596
 20
8.2366
 30
0
 70
     0
  0
VERTEX
  8
LAYER1
 10
4.4635
 20
8.191
 30
0
 70
     0
  0
VERTEX
  8
LAYER1
 10
4.47
 20
8.1636
 30
0
 70
     0
  0
VERTEX
  8
LAYER1
 10
4.4792
 20
8.1545
 30
0
 70
     0
  0
VERTEX
  8
LAYER1
 10
4.4792
 20
8.1545
 30
0
 70
     0
  0
VERTEX
  8
LAYER1
 10
4.4883
 20
8.1636
 30
0
 70
     0
  0
VERTEX
  8
LAYER1
 10
4.4948
 20
8.191
 30
0
 70
     0
  0
VERTEX
  8
LAYER1
 10
4.4987
 20
8.2366
 30
0
 70
     0
  0
VERTEX
  8
LAYER1
 10
4.5
 20
8.3003
 30
0
 70
     0
  0
VERTEX
  8
LAYER1
 10
4.5
 20
8.3003
 30
0
 70
     0
  0
VERTEX
  8
LAYER1
 10
4.4987
 20
8.3641
 30
0
 70
     0
  0
VERTEX
  8
LAYER1
 10
4.4948
 20
8.4097
 30
0
 70
     0
  0
VERTEX
  8
LAYER1
 10
4.4883
 20
8.4371
 30
0
 70
     0
  0
VERTEX
  8
LAYER1
 10
4.4792
 20
8.4462
 30
0
 70
     0
  0
SEQEND
  0
ENDBLK
  8
LAYER1
  0
BLOCK
  8
LAYER1
  2
Group52
 70
     0
 10
0
 20
0
 30
0
  0
LINE
  8
LAYER1
  6
CONTINUOUS
 62
     7
 10
16.5
 20
9.224
 30
0
 11
16.5972
 21
9.2378
 31
0
  0
LINE
  8
LAYER1
  6
CONTINUOUS
 62
     7
 10
16.5972
 20
9.2101
 30
0
 11
16.5
 21
9.1962
 31
0
  0
POLYLINE
  8
LAYER1
  6
CONTINUOUS
 62
     7
 66
     1
 70
     0
 40
0.0039
 41
0.0039
  0
VERTEX
  8
LAYER1
 10
16.5486
 20
9.5573
 30
0
 70
     0
  0
VERTEX
  8
LAYER1
 10
16.5372
 20
9.552
 30
0
 70
     0
  0
VERTEX
  8
LAYER1
 10
16.5273
 20
9.536
 30
0
 70
     0
  0
VERTEX
  8
LAYER1
 10
16.519
 20
9.5094
 30
0
 70
     0
  0
VERTEX
  8
LAYER1
 10
16.5121
 20
9.4722
 30
0
 70
     0
  0
VERTEX
  8
LAYER1
 10
16.5068
 20
9.4244
 30
0
 70
     0
  0
VERTEX
  8
LAYER1
 10
16.503
 20
9.3659
 30
0
 70
     0
  0
VERTEX
  8
LAYER1
 10
16.5008
 20
9.2968
 30
0
 70
     0
  0
VERTEX
  8
LAYER1
 10
16.5
 20
9.217
 30
0
 70
     0
  0
VERTEX
  8
LAYER1
 10
16.5
 20
9.217
 30
0
 70
     0
  0
VERTEX
  8
LAYER1
 10
16.5008
 20
9.1373
 30
0
 70
     0
  0
VERTEX
  8
LAYER1
 10
16.503
 20
9.0681
 30
0
 70
     0
  0
VERTEX
  8
LAYER1
 10
16.5068
 20
9.0097
 30
0
 70
     0
  0
VERTEX
  8
LAYER1
 10
16.5121
 20
8.9618
 30
0
 70
     0
  0
VERTEX
  8
LAYER1
 10
16.519
 20
8.9246
 30
0
 70
     0
  0
VERTEX
  8
LAYER1
 10
16.5273
 20
8.898
 30
0
 70
     0
  0
VERTEX
  8
LAYER1
 10
16.5372
 20
8.8821
 30
0
 70
     0
  0
VERTEX
  8
LAYER1
 10
16.5486
 20
8.8767
 30
0
 70
     0
  0
VERTEX
  8
LAYER1
 10
16.5486
 20
8.8767
 30
0
 70
     0
  0
VERTEX
  8
LAYER1
 10
16.56
 20
8.8821
 30
0
 70
     0
  0
VERTEX
  8
LAYER1
 10
16.5699
 20
8.898
 30
0
 70
     0
  0
VERTEX
  8
LAYER1
 10
16.5782
 20
8.9246
 30
0
 70
     0
  0
VERTEX
  8
LAYER1
 10
16.5851
 20
8.9618
 30
0
 70
     0
  0
VERTEX
  8
LAYER1
 10
16.5904
 20
9.0097
 30
0
 70
     0
  0
VERTEX
  8
LAYER1
 10
16.5942
 20
9.0681
 30
0
 70
     0
  0
VERTEX
  8
LAYER1
 10
16.5965
 20
9.1373
 30
0
 70
     0
  0
VERTEX
  8
LAYER1
 10
16.5972
 20
9.217
 30
0
 70
     0
  0
VERTEX
  8
LAYER1
 10
16.5972
 20
9.217
 30
0
 70
     0
  0
VERTEX
  8
LAYER1
 10
16.5965
 20
9.2968
 30
0
 70
     0
  0
VERTEX
  8
LAYER1
 10
16.5942
 20
9.3659
 30
0
 70
     0
  0
VERTEX
  8
LAYER1
 10
16.5904
 20
9.4244
 30
0
 70
     0
  0
VERTEX
  8
LAYER1
 10
16.5851
 20
9.4722
 30
0
 70
     0
  0
VERTEX
  8
LAYER1
 10
16.5782
 20
9.5094
 30
0
 70
     0
  0
VERTEX
  8
LAYER1
 10
16.5699
 20
9.536
 30
0
 70
     0
  0
VERTEX
  8
LAYER1
 10
16.56
 20
9.552
 30
0
 70
     0
  0
VERTEX
  8
LAYER1
 10
16.5486
 20
9.5573
 30
0
 70
     0
  0
SEQEND
  0
ENDBLK
  8
LAYER1
  0
BLOCK
  8
LAYER1
  2
Group53
 70
     0
 10
0
 20
0
 30
0
  0
LINE
  8
LAYER1
  6
CONTINUOUS
 62
     7
 10
17.9306
 20
9.1545
 30
0
 11
18.0417
 21
9.1684
 31
0
  0
LINE
  8
LAYER1
  6
CONTINUOUS
 62
     7
 10
18.0417
 20
9.1545
 30
0
 11
17.9306
 21
9.1406
 31
0
  0
POLYLINE
  8
LAYER1
  6
CONTINUOUS
 62
     7
 66
     1
 70
     0
 40
0.0039
 41
0.0039
  0
VERTEX
  8
LAYER1
 10
17.9861
 20
9.5434
 30
0
 70
     0
  0
VERTEX
  8
LAYER1
 10
17.9731
 20
9.5373
 30
0
 70
     0
  0
VERTEX
  8
LAYER1
 10
17.9618
 20
9.5191
 30
0
 70
     0
  0
VERTEX
  8
LAYER1
 10
17.9523
 20
9.4887
 30
0
 70
     0
  0
VERTEX
  8
LAYER1
 10
17.9444
 20
9.4462
 30
0
 70
     0
  0
VERTEX
  8
LAYER1
 10
17.9384
 20
9.3915
 30
0
 70
     0
  0
VERTEX
  8
LAYER1
 10
17.934
 20
9.3247
 30
0
 70
     0
  0
VERTEX
  8
LAYER1
 10
17.9314
 20
9.2457
 30
0
 70
     0
  0
VERTEX
  8
LAYER1
 10
17.9306
 20
9.1545
 30
0
 70
     0
  0
VERTEX
  8
LAYER1
 10
17.9306
 20
9.1545
 30
0
 70
     0
  0
VERTEX
  8
LAYER1
 10
17.9314
 20
9.0634
 30
0
 70
     0
  0
VERTEX
  8
LAYER1
 10
17.934
 20
8.9844
 30
0
 70
     0
  0
VERTEX
  8
LAYER1
 10
17.9384
 20
8.9175
 30
0
 70
     0
  0
VERTEX
  8
LAYER1
 10
17.9444
 20
8.8628
 30
0
 70
     0
  0
VERTEX
  8
LAYER1
 10
17.9523
 20
8.8203
 30
0
 70
     0
  0
VERTEX
  8
LAYER1
 10
17.9618
 20
8.7899
 30
0
 70
     0
  0
VERTEX
  8
LAYER1
 10
17.9731
 20
8.7717
 30
0
 70
     0
  0
VERTEX
  8
LAYER1
 10
17.9861
 20
8.7656
 30
0
 70
     0
  0
VERTEX
  8
LAYER1
 10
17.9861
 20
8.7656
 30
0
 70
     0
  0
VERTEX
  8
LAYER1
 10
17.9991
 20
8.7717
 30
0
 70
     0
  0
VERTEX
  8
LAYER1
 10
18.0104
 20
8.7899
 30
0
 70
     0
  0
VERTEX
  8
LAYER1
 10
18.02
 20
8.8203
 30
0
 70
     0
  0
VERTEX
  8
LAYER1
 10
18.0278
 20
8.8628
 30
0
 70
     0
  0
VERTEX
  8
LAYER1
 10
18.0339
 20
8.9175
 30
0
 70
     0
  0
VERTEX
  8
LAYER1
 10
18.0382
 20
8.9844
 30
0
 70
     0
  0
VERTEX
  8
LAYER1
 10
18.0408
 20
9.0634
 30
0
 70
     0
  0
VERTEX
  8
LAYER1
 10
18.0417
 20
9.1545
 30
0
 70
     0
  0
VERTEX
  8
LAYER1
 10
18.0417
 20
9.1545
 30
0
 70
     0
  0
VERTEX
  8
LAYER1
 10
18.0408
 20
9.2457
 30
0
 70
     0
  0
VERTEX
  8
LAYER1
 10
18.0382
 20
9.3247
 30
0
 70
     0
  0
VERTEX
  8
LAYER1
 10
18.0339
 20
9.3915
 30
0
 70
     0
  0
VERTEX
  8
LAYER1
 10
18.0278
 20
9.4462
 30
0
 70
     0
  0
VERTEX
  8
LAYER1
 10
18.02
 20
9.4887
 30
0
 70
     0
  0
VERTEX
  8
LAYER1
 10
18.0104
 20
9.5191
 30
0
 70
     0
  0
VERTEX
  8
LAYER1
 10
17.9991
 20
9.5373
 30
0
 70
     0
  0
VERTEX
  8
LAYER1
 10
17.9861
 20
9.5434
 30
0
 70
     0
  0
SEQEND
  0
ENDBLK
  8
LAYER1
  0
BLOCK
  8
LAYER1
  2
Group54
 70
     0
 10
0
 20
0
 30
0
  0
LINE
  8
LAYER1
  6
CONTINUOUS
 62
     7
 10
19.5833
 20
9.1545
 30
0
 11
19.7083
 21
9.1684
 31
0
  0
LINE
  8
LAYER1
  6
CONTINUOUS
 62
     7
 10
19.7083
 20
9.1406
 30
0
 11
19.5833
 21
9.1267
 31
0
  0
POLYLINE
  8
LAYER1
  6
CONTINUOUS
 62
     7
 66
     1
 70
     0
 40
0.0039
 41
0.0039
  0
VERTEX
  8
LAYER1
 10
19.6458
 20
8.7101
 30
0
 70
     0
  0
VERTEX
  8
LAYER1
 10
19.6312
 20
8.7169
 30
0
 70
     0
  0
VERTEX
  8
LAYER1
 10
19.6185
 20
8.7374
 30
0
 70
     0
  0
VERTEX
  8
LAYER1
 10
19.6077
 20
8.7716
 30
0
 70
     0
  0
VERTEX
  8
LAYER1
 10
19.5989
 20
8.8195
 30
0
 70
     0
  0
VERTEX
  8
LAYER1
 10
19.5921
 20
8.881
 30
0
 70
     0
  0
VERTEX
  8
LAYER1
 10
19.5872
 20
8.9562
 30
0
 70
     0
  0
VERTEX
  8
LAYER1
 10
19.5843
 20
9.045
 30
0
 70
     0
  0
VERTEX
  8
LAYER1
 10
19.5833
 20
9.1476
 30
0
 70
     0
  0
VERTEX
  8
LAYER1
 10
19.5833
 20
9.1476
 30
0
 70
     0
  0
VERTEX
  8
LAYER1
 10
19.5843
 20
9.2501
 30
0
 70
     0
  0
VERTEX
  8
LAYER1
 10
19.5872
 20
9.339
 30
0
 70
     0
  0
VERTEX
  8
LAYER1
 10
19.5921
 20
9.4142
 30
0
 70
     0
  0
VERTEX
  8
LAYER1
 10
19.5989
 20
9.4757
 30
0
 70
     0
  0
VERTEX
  8
LAYER1
 10
19.6077
 20
9.5236
 30
0
 70
     0
  0
VERTEX
  8
LAYER1
 10
19.6185
 20
9.5577
 30
0
 70
     0
  0
VERTEX
  8
LAYER1
 10
19.6312
 20
9.5782
 30
0
 70
     0
  0
VERTEX
  8
LAYER1
 10
19.6458
 20
9.5851
 30
0
 70
     0
  0
VERTEX
  8
LAYER1
 10
19.6458
 20
9.5851
 30
0
 70
     0
  0
VERTEX
  8
LAYER1
 10
19.6605
 20
9.5782
 30
0
 70
     0
  0
VERTEX
  8
LAYER1
 10
19.6732
 20
9.5577
 30
0
 70
     0
  0
VERTEX
  8
LAYER1
 10
19.6839
 20
9.5236
 30
0
 70
     0
  0
VERTEX
  8
LAYER1
 10
19.6927
 20
9.4757
 30
0
 70
     0
  0
VERTEX
  8
LAYER1
 10
19.6995
 20
9.4142
 30
0
 70
     0
  0
VERTEX
  8
LAYER1
 10
19.7044
 20
9.339
 30
0
 70
     0
  0
VERTEX
  8
LAYER1
 10
19.7073
 20
9.2501
 30
0
 70
     0
  0
VERTEX
  8
LAYER1
 10
19.7083
 20
9.1476
 30
0
 70
     0
  0
VERTEX
  8
LAYER1
 10
19.7083
 20
9.1476
 30
0
 70
     0
  0
VERTEX
  8
LAYER1
 10
19.7073
 20
9.045
 30
0
 70
     0
  0
VERTEX
  8
LAYER1
 10
19.7044
 20
8.9562
 30
0
 70
     0
  0
VERTEX
  8
LAYER1
 10
19.6995
 20
8.881
 30
0
 70
     0
  0
VERTEX
  8
LAYER1
 10
19.6927
 20
8.8195
 30
0
 70
     0
  0
VERTEX
  8
LAYER1
 10
19.6839
 20
8.7716
 30
0
 70
     0
  0
VERTEX
  8
LAYER1
 10
19.6732
 20
8.7374
 30
0
 70
     0
  0
VERTEX
  8
LAYER1
 10
19.6605
 20
8.7169
 30
0
 70
     0
  0
VERTEX
  8
LAYER1
 10
19.6458
 20
8.7101
 30
0
 70
     0
  0
SEQEND
  0
ENDBLK
  8
LAYER1
  0
BLOCK
  8
LAYER1
  2
Group55
 70
     0
 10
0
 20
0
 30
0
  0
LINE
  8
LAYER1
  6
CONTINUOUS
 62
     7
 10
16.1806
 20
5.8628
 30
0
 11
16.3194
 21
5.8767
 31
0
  0
LINE
  8
LAYER1
  6
CONTINUOUS
 62
     7
 10
16.3194
 20
5.8212
 30
0
 11
16.1806
 21
5.8073
 31
0
  0
POLYLINE
  8
LAYER1
  6
CONTINUOUS
 62
     7
 66
     1
 70
     0
 40
0.0039
 41
0.0039
  0
VERTEX
  8
LAYER1
 10
16.25
 20
6.3212
 30
0
 70
     0
  0
VERTEX
  8
LAYER1
 10
16.2337
 20
6.3136
 30
0
 70
     0
  0
VERTEX
  8
LAYER1
 10
16.2196
 20
6.2908
 30
0
 70
     0
  0
VERTEX
  8
LAYER1
 10
16.2077
 20
6.2528
 30
0
 70
     0
  0
VERTEX
  8
LAYER1
 10
16.1979
 20
6.1997
 30
0
 70
     0
  0
VERTEX
  8
LAYER1
 10
16.1903
 20
6.1313
 30
0
 70
     0
  0
VERTEX
  8
LAYER1
 10
16.1849
 20
6.0477
 30
0
 70
     0
  0
VERTEX
  8
LAYER1
 10
16.1816
 20
5.949
 30
0
 70
     0
  0
VERTEX
  8
LAYER1
 10
16.1806
 20
5.8351
 30
0
 70
     0
  0
VERTEX
  8
LAYER1
 10
16.1806
 20
5.8351
 30
0
 70
     0
  0
VERTEX
  8
LAYER1
 10
16.1816
 20
5.7211
 30
0
 70
     0
  0
VERTEX
  8
LAYER1
 10
16.1849
 20
5.6224
 30
0
 70
     0
  0
VERTEX
  8
LAYER1
 10
16.1903
 20
5.5388
 30
0
 70
     0
  0
VERTEX
  8
LAYER1
 10
16.1979
 20
5.4705
 30
0
 70
     0
  0
VERTEX
  8
LAYER1
 10
16.2077
 20
5.4173
 30
0
 70
     0
  0
VERTEX
  8
LAYER1
 10
16.2196
 20
5.3793
 30
0
 70
     0
  0
VERTEX
  8
LAYER1
 10
16.2337
 20
5.3566
 30
0
 70
     0
  0
VERTEX
  8
LAYER1
 10
16.25
 20
5.349
 30
0
 70
     0
  0
VERTEX
  8
LAYER1
 10
16.25
 20
5.349
 30
0
 70
     0
  0
VERTEX
  8
LAYER1
 10
16.2663
 20
5.3566
 30
0
 70
     0
  0
VERTEX
  8
LAYER1
 10
16.2804
 20
5.3793
 30
0
 70
     0
  0
VERTEX
  8
LAYER1
 10
16.2923
 20
5.4173
 30
0
 70
     0
  0
VERTEX
  8
LAYER1
 10
16.3021
 20
5.4705
 30
0
 70
     0
  0
VERTEX
  8
LAYER1
 10
16.3097
 20
5.5388
 30
0
 70
     0
  0
VERTEX
  8
LAYER1
 10
16.3151
 20
5.6224
 30
0
 70
     0
  0
VERTEX
  8
LAYER1
 10
16.3184
 20
5.7211
 30
0
 70
     0
  0
VERTEX
  8
LAYER1
 10
16.3194
 20
5.8351
 30
0
 70
     0
  0
VERTEX
  8
LAYER1
 10
16.3194
 20
5.8351
 30
0
 70
     0
  0
VERTEX
  8
LAYER1
 10
16.3184
 20
5.949
 30
0
 70
     0
  0
VERTEX
  8
LAYER1
 10
16.3151
 20
6.0477
 30
0
 70
     0
  0
VERTEX
  8
LAYER1
 10
16.3097
 20
6.1313
 30
0
 70
     0
  0
VERTEX
  8
LAYER1
 10
16.3021
 20
6.1997
 30
0
 70
     0
  0
VERTEX
  8
LAYER1
 10
16.2923
 20
6.2528
 30
0
 70
     0
  0
VERTEX
  8
LAYER1
 10
16.2804
 20
6.2908
 30
0
 70
     0
  0
VERTEX
  8
LAYER1
 10
16.2663
 20
6.3136
 30
0
 70
     0
  0
VERTEX
  8
LAYER1
 10
16.25
 20
6.3212
 30
0
 70
     0
  0
SEQEND
  0
ENDBLK
  8
LAYER1
  0
BLOCK
  8
LAYER1
  2
Group56
 70
     0
 10
0
 20
0
 30
0
  0
LINE
  8
LAYER1
  6
CONTINUOUS
 62
     7
 10
18.1528
 20
5.9462
 30
0
 11
18.3056
 21
5.9601
 31
0
  0
LINE
  8
LAYER1
  6
CONTINUOUS
 62
     7
 10
18.3056
 20
5.8906
 30
0
 11
18.1528
 21
5.8767
 31
0
  0
POLYLINE
  8
LAYER1
  6
CONTINUOUS
 62
     7
 66
     1
 70
     0
 40
0.0039
 41
0.0039
  0
VERTEX
  8
LAYER1
 10
18.2292
 20
6.4323
 30
0
 70
     0
  0
VERTEX
  8
LAYER1
 10
18.2113
 20
6.4238
 30
0
 70
     0
  0
VERTEX
  8
LAYER1
 10
18.1957
 20
6.3984
 30
0
 70
     0
  0
VERTEX
  8
LAYER1
 10
18.1826
 20
6.3561
 30
0
 70
     0
  0
VERTEX
  8
LAYER1
 10
18.1719
 20
6.2969
 30
0
 70
     0
  0
VERTEX
  8
LAYER1
 10
18.1635
 20
6.2207
 30
0
 70
     0
  0
VERTEX
  8
LAYER1
 10
18.1575
 20
6.1276
 30
0
 70
     0
  0
VERTEX
  8
LAYER1
 10
18.154
 20
6.0176
 30
0
 70
     0
  0
VERTEX
  8
LAYER1
 10
18.1528
 20
5.8906
 30
0
 70
     0
  0
VERTEX
  8
LAYER1
 10
18.1528
 20
5.8906
 30
0
 70
     0
  0
VERTEX
  8
LAYER1
 10
18.154
 20
5.7637
 30
0
 70
     0
  0
VERTEX
  8
LAYER1
 10
18.1575
 20
5.6537
 30
0
 70
     0
  0
VERTEX
  8
LAYER1
 10
18.1635
 20
5.5605
 30
0
 70
     0
  0
VERTEX
  8
LAYER1
 10
18.1719
 20
5.4844
 30
0
 70
     0
  0
VERTEX
  8
LAYER1
 10
18.1826
 20
5.4251
 30
0
 70
     0
  0
VERTEX
  8
LAYER1
 10
18.1957
 20
5.3828
 30
0
 70
     0
  0
VERTEX
  8
LAYER1
 10
18.2113
 20
5.3574
 30
0
 70
     0
  0
VERTEX
  8
LAYER1
 10
18.2292
 20
5.349
 30
0
 70
     0
  0
VERTEX
  8
LAYER1
 10
18.2292
 20
5.349
 30
0
 70
     0
  0
VERTEX
  8
LAYER1
 10
18.2471
 20
5.3574
 30
0
 70
     0
  0
VERTEX
  8
LAYER1
 10
18.2626
 20
5.3828
 30
0
 70
     0
  0
VERTEX
  8
LAYER1
 10
18.2757
 20
5.4251
 30
0
 70
     0
  0
VERTEX
  8
LAYER1
 10
18.2864
 20
5.4844
 30
0
 70
     0
  0
VERTEX
  8
LAYER1
 10
18.2948
 20
5.5605
 30
0
 70
     0
  0
VERTEX
  8
LAYER1
 10
18.3008
 20
5.6537
 30
0
 70
     0
  0
VERTEX
  8
LAYER1
 10
18.3044
 20
5.7637
 30
0
 70
     0
  0
VERTEX
  8
LAYER1
 10
18.3056
 20
5.8906
 30
0
 70
     0
  0
VERTEX
  8
LAYER1
 10
18.3056
 20
5.8906
 30
0
 70
     0
  0
VERTEX
  8
LAYER1
 10
18.3044
 20
6.0176
 30
0
 70
     0
  0
VERTEX
  8
LAYER1
 10
18.3008
 20
6.1276
 30
0
 70
     0
  0
VERTEX
  8
LAYER1
 10
18.2948
 20
6.2207
 30
0
 70
     0
  0
VERTEX
  8
LAYER1
 10
18.2864
 20
6.2969
 30
0
 70
     0
  0
VERTEX
  8
LAYER1
 10
18.2757
 20
6.3561
 30
0
 70
     0
  0
VERTEX
  8
LAYER1
 10
18.2626
 20
6.3984
 30
0
 70
     0
  0
VERTEX
  8
LAYER1
 10
18.2471
 20
6.4238
 30
0
 70
     0
  0
VERTEX
  8
LAYER1
 10
18.2292
 20
6.4323
 30
0
 70
     0
  0
SEQEND
  0
ENDBLK
  8
LAYER1
  0
BLOCK
  8
LAYER1
  2
Group57
 70
     0
 10
0
 20
0
 30
0
  0
LINE
  8
LAYER1
  6
CONTINUOUS
 62
     7
 10
20.25
 20
5.9184
 30
0
 11
20.4306
 21
5.9462
 31
0
  0
LINE
  8
LAYER1
  6
CONTINUOUS
 62
     7
 10
20.4306
 20
5.8767
 30
0
 11
20.25
 21
5.8628
 31
0
  0
POLYLINE
  8
LAYER1
  6
CONTINUOUS
 62
     7
 66
     1
 70
     0
 40
0.0039
 41
0.0039
  0
VERTEX
  8
LAYER1
 10
20.3403
 20
6.5434
 30
0
 70
     0
  0
VERTEX
  8
LAYER1
 10
20.3191
 20
6.5334
 30
0
 70
     0
  0
VERTEX
  8
LAYER1
 10
20.3008
 20
6.5035
 30
0
 70
     0
  0
VERTEX
  8
LAYER1
 10
20.2853
 20
6.4536
 30
0
 70
     0
  0
VERTEX
  8
LAYER1
 10
20.2726
 20
6.3837
 30
0
 70
     0
  0
VERTEX
  8
LAYER1
 10
20.2627
 20
6.2938
 30
0
 70
     0
  0
VERTEX
  8
LAYER1
 10
20.2556
 20
6.184
 30
0
 70
     0
  0
VERTEX
  8
LAYER1
 10
20.2514
 20
6.0543
 30
0
 70
     0
  0
VERTEX
  8
LAYER1
 10
20.25
 20
5.9045
 30
0
 70
     0
  0
VERTEX
  8
LAYER1
 10
20.25
 20
5.9045
 30
0
 70
     0
  0
VERTEX
  8
LAYER1
 10
20.2514
 20
5.7548
 30
0
 70
     0
  0
VERTEX
  8
LAYER1
 10
20.2556
 20
5.625
 30
0
 70
     0
  0
VERTEX
  8
LAYER1
 10
20.2627
 20
5.5152
 30
0
 70
     0
  0
VERTEX
  8
LAYER1
 10
20.2726
 20
5.4253
 30
0
 70
     0
  0
VERTEX
  8
LAYER1
 10
20.2853
 20
5.3555
 30
0
 70
     0
  0
VERTEX
  8
LAYER1
 10
20.3008
 20
5.3056
 30
0
 70
     0
  0
VERTEX
  8
LAYER1
 10
20.3191
 20
5.2756
 30
0
 70
     0
  0
VERTEX
  8
LAYER1
 10
20.3403
 20
5.2656
 30
0
 70
     0
  0
VERTEX
  8
LAYER1
 10
20.3403
 20
5.2656
 30
0
 70
     0
  0
VERTEX
  8
LAYER1
 10
20.3614
 20
5.2756
 30
0
 70
     0
  0
VERTEX
  8
LAYER1
 10
20.3798
 20
5.3056
 30
0
 70
     0
  0
VERTEX
  8
LAYER1
 10
20.3953
 20
5.3555
 30
0
 70
     0
  0
VERTEX
  8
LAYER1
 10
20.408
 20
5.4253
 30
0
 70
     0
  0
VERTEX
  8
LAYER1
 10
20.4179
 20
5.5152
 30
0
 70
     0
  0
VERTEX
  8
LAYER1
 10
20.4249
 20
5.625
 30
0
 70
     0
  0
VERTEX
  8
LAYER1
 10
20.4291
 20
5.7548
 30
0
 70
     0
  0
VERTEX
  8
LAYER1
 10
20.4306
 20
5.9045
 30
0
 70
     0
  0
VERTEX
  8
LAYER1
 10
20.4306
 20
5.9045
 30
0
 70
     0
  0
VERTEX
  8
LAYER1
 10
20.4291
 20
6.0543
 30
0
 70
     0
  0
VERTEX
  8
LAYER1
 10
20.4249
 20
6.184
 30
0
 70
     0
  0
VERTEX
  8
LAYER1
 10
20.4179
 20
6.2938
 30
0
 70
     0
  0
VERTEX
  8
LAYER1
 10
20.408
 20
6.3837
 30
0
 70
     0
  0
VERTEX
  8
LAYER1
 10
20.3953
 20
6.4536
 30
0
 70
     0
  0
VERTEX
  8
LAYER1
 10
20.3798
 20
6.5035
 30
0
 70
     0
  0
VERTEX
  8
LAYER1
 10
20.3614
 20
6.5334
 30
0
 70
     0
  0
VERTEX
  8
LAYER1
 10
20.3403
 20
6.5434
 30
0
 70
     0
  0
SEQEND
  0
ENDBLK
  8
LAYER1
  0
BLOCK
  8
LAYER1
  2
Group58
 70
     0
 10
0
 20
0
 30
0
  0
LINE
  8
LAYER1
  6
CONTINUOUS
 62
     7
 10
16.9028
 20
2.9045
 30
0
 11
17.1111
 21
2.9323
 31
0
  0
LINE
  8
LAYER1
  6
CONTINUOUS
 62
     7
 10
17.1111
 20
2.8628
 30
0
 11
16.9028
 21
2.849
 31
0
  0
POLYLINE
  8
LAYER1
  6
CONTINUOUS
 62
     7
 66
     1
 70
     0
 40
0.0039
 41
0.0039
  0
VERTEX
  8
LAYER1
 10
17.0069
 20
3.6128
 30
0
 70
     0
  0
VERTEX
  8
LAYER1
 10
16.9825
 20
3.6015
 30
0
 70
     0
  0
VERTEX
  8
LAYER1
 10
16.9614
 20
3.5673
 30
0
 70
     0
  0
VERTEX
  8
LAYER1
 10
16.9435
 20
3.5103
 30
0
 70
     0
  0
VERTEX
  8
LAYER1
 10
16.9288
 20
3.4306
 30
0
 70
     0
  0
VERTEX
  8
LAYER1
 10
16.9174
 20
3.328
 30
0
 70
     0
  0
VERTEX
  8
LAYER1
 10
16.9093
 20
3.2027
 30
0
 70
     0
  0
VERTEX
  8
LAYER1
 10
16.9044
 20
3.0546
 30
0
 70
     0
  0
VERTEX
  8
LAYER1
 10
16.9028
 20
2.8837
 30
0
 70
     0
  0
VERTEX
  8
LAYER1
 10
16.9028
 20
2.8837
 30
0
 70
     0
  0
VERTEX
  8
LAYER1
 10
16.9044
 20
2.7128
 30
0
 70
     0
  0
VERTEX
  8
LAYER1
 10
16.9093
 20
2.5647
 30
0
 70
     0
  0
VERTEX
  8
LAYER1
 10
16.9174
 20
2.4393
 30
0
 70
     0
  0
VERTEX
  8
LAYER1
 10
16.9288
 20
2.3368
 30
0
 70
     0
  0
VERTEX
  8
LAYER1
 10
16.9435
 20
2.2571
 30
0
 70
     0
  0
VERTEX
  8
LAYER1
 10
16.9614
 20
2.2001
 30
0
 70
     0
  0
VERTEX
  8
LAYER1
 10
16.9825
 20
2.1659
 30
0
 70
     0
  0
VERTEX
  8
LAYER1
 10
17.0069
 20
2.1545
 30
0
 70
     0
  0
VERTEX
  8
LAYER1
 10
17.0069
 20
2.1545
 30
0
 70
     0
  0
VERTEX
  8
LAYER1
 10
17.0314
 20
2.1659
 30
0
 70
     0
  0
VERTEX
  8
LAYER1
 10
17.0525
 20
2.2001
 30
0
 70
     0
  0
VERTEX
  8
LAYER1
 10
17.0704
 20
2.2571
 30
0
 70
     0
  0
VERTEX
  8
LAYER1
 10
17.0851
 20
2.3368
 30
0
 70
     0
  0
VERTEX
  8
LAYER1
 10
17.0965
 20
2.4393
 30
0
 70
     0
  0
VERTEX
  8
LAYER1
 10
17.1046
 20
2.5647
 30
0
 70
     0
  0
VERTEX
  8
LAYER1
 10
17.1095
 20
2.7128
 30
0
 70
     0
  0
VERTEX
  8
LAYER1
 10
17.1111
 20
2.8837
 30
0
 70
     0
  0
VERTEX
  8
LAYER1
 10
17.1111
 20
2.8837
 30
0
 70
     0
  0
VERTEX
  8
LAYER1
 10
17.1095
 20
3.0546
 30
0
 70
     0
  0
VERTEX
  8
LAYER1
 10
17.1046
 20
3.2027
 30
0
 70
     0
  0
VERTEX
  8
LAYER1
 10
17.0965
 20
3.328
 30
0
 70
     0
  0
VERTEX
  8
LAYER1
 10
17.0851
 20
3.4306
 30
0
 70
     0
  0
VERTEX
  8
LAYER1
 10
17.0704
 20
3.5103
 30
0
 70
     0
  0
VERTEX
  8
LAYER1
 10
17.0525
 20
3.5673
 30
0
 70
     0
  0
VERTEX
  8
LAYER1
 10
17.0314
 20
3.6015
 30
0
 70
     0
  0
VERTEX
  8
LAYER1
 10
17.0069
 20
3.6128
 30
0
 70
     0
  0
SEQEND
  0
ENDBLK
  8
LAYER1
  0
BLOCK
  8
LAYER1
  2
Group59
 70
     0
 10
0
 20
0
 30
0
  0
LINE
  8
LAYER1
  6
CONTINUOUS
 62
     7
 10
11
 20
9.349
 30
0
 11
11.25
 21
9.3767
 31
0
  0
LINE
  8
LAYER1
  6
CONTINUOUS
 62
     7
 10
11.25
 20
9.3073
 30
0
 11
11
 21
9.2795
 31
0
  0
POLYLINE
  8
LAYER1
  6
CONTINUOUS
 62
     7
 66
     1
 70
     0
 40
0.0039
 41
0.0039
  0
VERTEX
  8
LAYER1
 10
11.125
 20
10.1545
 30
0
 70
     0
  0
VERTEX
  8
LAYER1
 10
11.0957
 20
10.1416
 30
0
 70
     0
  0
VERTEX
  8
LAYER1
 10
11.0703
 20
10.1029
 30
0
 70
     0
  0
VERTEX
  8
LAYER1
 10
11.0488
 20
10.0383
 30
0
 70
     0
  0
VERTEX
  8
LAYER1
 10
11.0312
 20
9.9479
 30
0
 70
     0
  0
VERTEX
  8
LAYER1
 10
11.0176
 20
9.8317
 30
0
 70
     0
  0
VERTEX
  8
LAYER1
 10
11.0078
 20
9.6897
 30
0
 70
     0
  0
VERTEX
  8
LAYER1
 10
11.0019
 20
9.5218
 30
0
 70
     0
  0
VERTEX
  8
LAYER1
 10
11
 20
9.3281
 30
0
 70
     0
  0
VERTEX
  8
LAYER1
 10
11
 20
9.3281
 30
0
 70
     0
  0
VERTEX
  8
LAYER1
 10
11.0019
 20
9.1344
 30
0
 70
     0
  0
VERTEX
  8
LAYER1
 10
11.0078
 20
8.9666
 30
0
 70
     0
  0
VERTEX
  8
LAYER1
 10
11.0176
 20
8.8246
 30
0
 70
     0
  0
VERTEX
  8
LAYER1
 10
11.0312
 20
8.7083
 30
0
 70
     0
  0
VERTEX
  8
LAYER1
 10
11.0488
 20
8.6179
 30
0
 70
     0
  0
VERTEX
  8
LAYER1
 10
11.0703
 20
8.5534
 30
0
 70
     0
  0
VERTEX
  8
LAYER1
 10
11.0957
 20
8.5146
 30
0
 70
     0
  0
VERTEX
  8
LAYER1
 10
11.125
 20
8.5017
 30
0
 70
     0
  0
VERTEX
  8
LAYER1
 10
11.125
 20
8.5017
 30
0
 70
     0
  0
VERTEX
  8
LAYER1
 10
11.1543
 20
8.5146
 30
0
 70
     0
  0
VERTEX
  8
LAYER1
 10
11.1797
 20
8.5534
 30
0
 70
     0
  0
VERTEX
  8
LAYER1
 10
11.2012
 20
8.6179
 30
0
 70
     0
  0
VERTEX
  8
LAYER1
 10
11.2187
 20
8.7083
 30
0
 70
     0
  0
VERTEX
  8
LAYER1
 10
11.2324
 20
8.8246
 30
0
 70
     0
  0
VERTEX
  8
LAYER1
 10
11.2422
 20
8.9666
 30
0
 70
     0
  0
VERTEX
  8
LAYER1
 10
11.248
 20
9.1344
 30
0
 70
     0
  0
VERTEX
  8
LAYER1
 10
11.25
 20
9.3281
 30
0
 70
     0
  0
VERTEX
  8
LAYER1
 10
11.25
 20
9.3281
 30
0
 70
     0
  0
VERTEX
  8
LAYER1
 10
11.248
 20
9.5218
 30
0
 70
     0
  0
VERTEX
  8
LAYER1
 10
11.2422
 20
9.6897
 30
0
 70
     0
  0
VERTEX
  8
LAYER1
 10
11.2324
 20
9.8317
 30
0
 70
     0
  0
VERTEX
  8
LAYER1
 10
11.2187
 20
9.9479
 30
0
 70
     0
  0
VERTEX
  8
LAYER1
 10
11.2012
 20
10.0383
 30
0
 70
     0
  0
VERTEX
  8
LAYER1
 10
11.1797
 20
10.1029
 30
0
 70
     0
  0
VERTEX
  8
LAYER1
 10
11.1543
 20
10.1416
 30
0
 70
     0
  0
VERTEX
  8
LAYER1
 10
11.125
 20
10.1545
 30
0
 70
     0
  0
SEQEND
  0
ENDBLK
  8
LAYER1
  0
BLOCK
  8
LAYER1
  2
Group60
 70
     0
 10
0
 20
0
 30
0
  0
LINE
  8
LAYER1
  6
CONTINUOUS
 62
     7
 10
14.0278
 20
9.2795
 30
0
 11
14.3056
 21
9.3073
 31
0
  0
LINE
  8
LAYER1
  6
CONTINUOUS
 62
     7
 10
14.3056
 20
9.2517
 30
0
 11
14.0278
 21
9.2101
 31
0
  0
POLYLINE
  8
LAYER1
  6
CONTINUOUS
 62
     7
 66
     1
 70
     0
 40
0.0039
 41
0.0039
  0
VERTEX
  8
LAYER1
 10
14.1667
 20
10.1823
 30
0
 70
     0
  0
VERTEX
  8
LAYER1
 10
14.1498
 20
10.1787
 30
0
 70
     0
  0
VERTEX
  8
LAYER1
 10
14.1341
 20
10.1679
 30
0
 70
     0
  0
VERTEX
  8
LAYER1
 10
14.1195
 20
10.1498
 30
0
 70
     0
  0
VERTEX
  8
LAYER1
 10
14.1059
 20
10.1246
 30
0
 70
     0
  0
VERTEX
  8
LAYER1
 10
14.0934
 20
10.0921
 30
0
 70
     0
  0
VERTEX
  8
LAYER1
 10
14.082
 20
10.0524
 30
0
 70
     0
  0
VERTEX
  8
LAYER1
 10
14.0717
 20
10.0055
 30
0
 70
     0
  0
VERTEX
  8
LAYER1
 10
14.0625
 20
9.9514
 30
0
 70
     0
  0
VERTEX
  8
LAYER1
 10
14.0544
 20
9.8901
 30
0
 70
     0
  0
VERTEX
  8
LAYER1
 10
14.0473
 20
9.8215
 30
0
 70
     0
  0
VERTEX
  8
LAYER1
 10
14.0413
 20
9.7457
 30
0
 70
     0
  0
VERTEX
  8
LAYER1
 10
14.0364
 20
9.6628
 30
0
 70
     0
  0
VERTEX
  8
LAYER1
 10
14.0326
 20
9.5726
 30
0
 70
     0
  0
VERTEX
  8
LAYER1
 10
14.0299
 20
9.4752
 30
0
 70
     0
  0
VERTEX
  8
LAYER1
 10
14.0283
 20
9.3705
 30
0
 70
     0
  0
VERTEX
  8
LAYER1
 10
14.0278
 20
9.2587
 30
0
 70
     0
  0
VERTEX
  8
LAYER1
 10
14.0278
 20
9.2587
 30
0
 70
     0
  0
VERTEX
  8
LAYER1
 10
14.0283
 20
9.1468
 30
0
 70
     0
  0
VERTEX
  8
LAYER1
 10
14.0299
 20
9.0422
 30
0
 70
     0
  0
VERTEX
  8
LAYER1
 10
14.0326
 20
8.9448
 30
0
 70
     0
  0
VERTEX
  8
LAYER1
 10
14.0364
 20
8.8546
 30
0
 70
     0
  0
VERTEX
  8
LAYER1
 10
14.0413
 20
8.7716
 30
0
 70
     0
  0
VERTEX
  8
LAYER1
 10
14.0473
 20
8.6959
 30
0
 70
     0
  0
VERTEX
  8
LAYER1
 10
14.0544
 20
8.6273
 30
0
 70
     0
  0
VERTEX
  8
LAYER1
 10
14.0625
 20
8.566
 30
0
 70
     0
  0
VERTEX
  8
LAYER1
 10
14.0717
 20
8.5119
 30
0
 70
     0
  0
VERTEX
  8
LAYER1
 10
14.082
 20
8.465
 30
0
 70
     0
  0
VERTEX
  8
LAYER1
 10
14.0934
 20
8.4253
 30
0
 70
     0
  0
VERTEX
  8
LAYER1
 10
14.1059
 20
8.3928
 30
0
 70
     0
  0
VERTEX
  8
LAYER1
 10
14.1195
 20
8.3675
 30
0
 70
     0
  0
VERTEX
  8
LAYER1
 10
14.1341
 20
8.3495
 30
0
 70
     0
  0
VERTEX
  8
LAYER1
 10
14.1498
 20
8.3387
 30
0
 70
     0
  0
VERTEX
  8
LAYER1
 10
14.1667
 20
8.3351
 30
0
 70
     0
  0
VERTEX
  8
LAYER1
 10
14.1667
 20
8.3351
 30
0
 70
     0
  0
VERTEX
  8
LAYER1
 10
14.1835
 20
8.3387
 30
0
 70
     0
  0
VERTEX
  8
LAYER1
 10
14.1992
 20
8.3495
 30
0
 70
     0
  0
VERTEX
  8
LAYER1
 10
14.2139
 20
8.3675
 30
0
 70
     0
  0
VERTEX
  8
LAYER1
 10
14.2274
 20
8.3928
 30
0
 70
     0
  0
VERTEX
  8
LAYER1
 10
14.2399
 20
8.4253
 30
0
 70
     0
  0
VERTEX
  8
LAYER1
 10
14.2513
 20
8.465
 30
0
 70
     0
  0
VERTEX
  8
LAYER1
 10
14.2616
 20
8.5119
 30
0
 70
     0
  0
VERTEX
  8
LAYER1
 10
14.2708
 20
8.566
 30
0
 70
     0
  0
VERTEX
  8
LAYER1
 10
14.279
 20
8.6273
 30
0
 70
     0
  0
VERTEX
  8
LAYER1
 10
14.286
 20
8.6959
 30
0
 70
     0
  0
VERTEX
  8
LAYER1
 10
14.292
 20
8.7716
 30
0
 70
     0
  0
VERTEX
  8
LAYER1
 10
14.2969
 20
8.8546
 30
0
 70
     0
  0
VERTEX
  8
LAYER1
 10
14.3007
 20
8.9448
 30
0
 70
     0
  0
VERTEX
  8
LAYER1
 10
14.3034
 20
9.0422
 30
0
 70
     0
  0
VERTEX
  8
LAYER1
 10
14.305
 20
9.1468
 30
0
 70
     0
  0
VERTEX
  8
LAYER1
 10
14.3056
 20
9.2587
 30
0
 70
     0
  0
VERTEX
  8
LAYER1
 10
14.3056
 20
9.2587
 30
0
 70
     0
  0
VERTEX
  8
LAYER1
 10
14.305
 20
9.3705
 30
0
 70
     0
  0
VERTEX
  8
LAYER1
 10
14.3034
 20
9.4752
 30
0
 70
     0
  0
VERTEX
  8
LAYER1
 10
14.3007
 20
9.5726
 30
0
 70
     0
  0
VERTEX
  8
LAYER1
 10
14.2969
 20
9.6628
 30
0
 70
     0
  0
VERTEX
  8
LAYER1
 10
14.292
 20
9.7457
 30
0
 70
     0
  0
VERTEX
  8
LAYER1
 10
14.286
 20
9.8215
 30
0
 70
     0
  0
VERTEX
  8
LAYER1
 10
14.279
 20
9.8901
 30
0
 70
     0
  0
VERTEX
  8
LAYER1
 10
14.2708
 20
9.9514
 30
0
 70
     0
  0
VERTEX
  8
LAYER1
 10
14.2616
 20
10.0055
 30
0
 70
     0
  0
VERTEX
  8
LAYER1
 10
14.2513
 20
10.0524
 30
0
 70
     0
  0
VERTEX
  8
LAYER1
 10
14.2399
 20
10.0921
 30
0
 70
     0
  0
VERTEX
  8
LAYER1
 10
14.2274
 20
10.1246
 30
0
 70
     0
  0
VERTEX
  8
LAYER1
 10
14.2139
 20
10.1498
 30
0
 70
     0
  0
VERTEX
  8
LAYER1
 10
14.1992
 20
10.1679
 30
0
 70
     0
  0
VERTEX
  8
LAYER1
 10
14.1835
 20
10.1787
 30
0
 70
     0
  0
VERTEX
  8
LAYER1
 10
14.1667
 20
10.1823
 30
0
 70
     0
  0
SEQEND
  0
ENDBLK
  8
LAYER1
  0
BLOCK
  8
LAYER1
  2
Group61
 70
     0
 10
0
 20
0
 30
0
  0
LINE
  8
LAYER1
  6
CONTINUOUS
 62
     7
 10
19.9444
 20
2.724
 30
0
 11
20.2639
 21
2.7656
 31
0
  0
LINE
  8
LAYER1
  6
CONTINUOUS
 62
     7
 10
20.2639
 20
2.6962
 30
0
 11
19.9444
 21
2.6545
 31
0
  0
POLYLINE
  8
LAYER1
  6
CONTINUOUS
 62
     7
 66
     1
 70
     0
 40
0.0039
 41
0.0039
  0
VERTEX
  8
LAYER1
 10
20.1042
 20
3.7378
 30
0
 70
     0
  0
VERTEX
  8
LAYER1
 10
20.0848
 20
3.7338
 30
0
 70
     0
  0
VERTEX
  8
LAYER1
 10
20.0667
 20
3.7218
 30
0
 70
     0
  0
VERTEX
  8
LAYER1
 10
20.0499
 20
3.7017
 30
0
 70
     0
  0
VERTEX
  8
LAYER1
 10
20.0343
 20
3.6736
 30
0
 70
     0
  0
VERTEX
  8
LAYER1
 10
20.0199
 20
3.6375
 30
0
 70
     0
  0
VERTEX
  8
LAYER1
 10
20.0068
 20
3.5933
 30
0
 70
     0
  0
VERTEX
  8
LAYER1
 10
19.995
 20
3.5411
 30
0
 70
     0
  0
VERTEX
  8
LAYER1
 10
19.9844
 20
3.4809
 30
0
 70
     0
  0
VERTEX
  8
LAYER1
 10
19.975
 20
3.4127
 30
0
 70
     0
  0
VERTEX
  8
LAYER1
 10
19.9669
 20
3.3364
 30
0
 70
     0
  0
VERTEX
  8
LAYER1
 10
19.96
 20
3.2521
 30
0
 70
     0
  0
VERTEX
  8
LAYER1
 10
19.9544
 20
3.1597
 30
0
 70
     0
  0
VERTEX
  8
LAYER1
 10
19.9501
 20
3.0594
 30
0
 70
     0
  0
VERTEX
  8
LAYER1
 10
19.9469
 20
2.951
 30
0
 70
     0
  0
VERTEX
  8
LAYER1
 10
19.9451
 20
2.8345
 30
0
 70
     0
  0
VERTEX
  8
LAYER1
 10
19.9444
 20
2.7101
 30
0
 70
     0
  0
VERTEX
  8
LAYER1
 10
19.9444
 20
2.7101
 30
0
 70
     0
  0
VERTEX
  8
LAYER1
 10
19.9451
 20
2.5856
 30
0
 70
     0
  0
VERTEX
  8
LAYER1
 10
19.9469
 20
2.4692
 30
0
 70
     0
  0
VERTEX
  8
LAYER1
 10
19.9501
 20
2.3608
 30
0
 70
     0
  0
VERTEX
  8
LAYER1
 10
19.9544
 20
2.2604
 30
0
 70
     0
  0
VERTEX
  8
LAYER1
 10
19.96
 20
2.1681
 30
0
 70
     0
  0
VERTEX
  8
LAYER1
 10
19.9669
 20
2.0838
 30
0
 70
     0
  0
VERTEX
  8
LAYER1
 10
19.975
 20
2.0075
 30
0
 70
     0
  0
VERTEX
  8
LAYER1
 10
19.9844
 20
1.9392
 30
0
 70
     0
  0
VERTEX
  8
LAYER1
 10
19.995
 20
1.879
 30
0
 70
     0
  0
VERTEX
  8
LAYER1
 10
20.0068
 20
1.8268
 30
0
 70
     0
  0
VERTEX
  8
LAYER1
 10
20.0199
 20
1.7827
 30
0
 70
     0
  0
VERTEX
  8
LAYER1
 10
20.0343
 20
1.7465
 30
0
 70
     0
  0
VERTEX
  8
LAYER1
 10
20.0499
 20
1.7184
 30
0
 70
     0
  0
VERTEX
  8
LAYER1
 10
20.0667
 20
1.6984
 30
0
 70
     0
  0
VERTEX
  8
LAYER1
 10
20.0848
 20
1.6863
 30
0
 70
     0
  0
VERTEX
  8
LAYER1
 10
20.1042
 20
1.6823
 30
0
 70
     0
  0
VERTEX
  8
LAYER1
 10
20.1042
 20
1.6823
 30
0
 70
     0
  0
VERTEX
  8
LAYER1
 10
20.1235
 20
1.6863
 30
0
 70
     0
  0
VERTEX
  8
LAYER1
 10
20.1416
 20
1.6984
 30
0
 70
     0
  0
VERTEX
  8
LAYER1
 10
20.1584
 20
1.7184
 30
0
 70
     0
  0
VERTEX
  8
LAYER1
 10
20.174
 20
1.7465
 30
0
 70
     0
  0
VERTEX
  8
LAYER1
 10
20.1884
 20
1.7827
 30
0
 70
     0
  0
VERTEX
  8
LAYER1
 10
20.2015
 20
1.8268
 30
0
 70
     0
  0
VERTEX
  8
LAYER1
 10
20.2133
 20
1.879
 30
0
 70
     0
  0
VERTEX
  8
LAYER1
 10
20.2239
 20
1.9392
 30
0
 70
     0
  0
VERTEX
  8
LAYER1
 10
20.2333
 20
2.0075
 30
0
 70
     0
  0
VERTEX
  8
LAYER1
 10
20.2414
 20
2.0838
 30
0
 70
     0
  0
VERTEX
  8
LAYER1
 10
20.2483
 20
2.1681
 30
0
 70
     0
  0
VERTEX
  8
LAYER1
 10
20.2539
 20
2.2604
 30
0
 70
     0
  0
VERTEX
  8
LAYER1
 10
20.2583
 20
2.3608
 30
0
 70
     0
  0
VERTEX
  8
LAYER1
 10
20.2614
 20
2.4692
 30
0
 70
     0
  0
VERTEX
  8
LAYER1
 10
20.2633
 20
2.5856
 30
0
 70
     0
  0
VERTEX
  8
LAYER1
 10
20.2639
 20
2.7101
 30
0
 70
     0
  0
VERTEX
  8
LAYER1
 10
20.2639
 20
2.7101
 30
0
 70
     0
  0
VERTEX
  8
LAYER1
 10
20.2633
 20
2.8345
 30
0
 70
     0
  0
VERTEX
  8
LAYER1
 10
20.2614
 20
2.951
 30
0
 70
     0
  0
VERTEX
  8
LAYER1
 10
20.2583
 20
3.0594
 30
0
 70
     0
  0
VERTEX
  8
LAYER1
 10
20.2539
 20
3.1597
 30
0
 70
     0
  0
VERTEX
  8
LAYER1
 10
20.2483
 20
3.2521
 30
0
 70
     0
  0
VERTEX
  8
LAYER1
 10
20.2414
 20
3.3364
 30
0
 70
     0
  0
VERTEX
  8
LAYER1
 10
20.2333
 20
3.4127
 30
0
 70
     0
  0
VERTEX
  8
LAYER1
 10
20.2239
 20
3.4809
 30
0
 70
     0
  0
VERTEX
  8
LAYER1
 10
20.2133
 20
3.5411
 30
0
 70
     0
  0
VERTEX
  8
LAYER1
 10
20.2015
 20
3.5933
 30
0
 70
     0
  0
VERTEX
  8
LAYER1
 10
20.1884
 20
3.6375
 30
0
 70
     0
  0
VERTEX
  8
LAYER1
 10
20.174
 20
3.6736
 30
0
 70
     0
  0
VERTEX
  8
LAYER1
 10
20.1584
 20
3.7017
 30
0
 70
     0
  0
VERTEX
  8
LAYER1
 10
20.1416
 20
3.7218
 30
0
 70
     0
  0
VERTEX
  8
LAYER1
 10
20.1235
 20
3.7338
 30
0
 70
     0
  0
VERTEX
  8
LAYER1
 10
20.1042
 20
3.7378
 30
0
 70
     0
  0
SEQEND
  0
ENDBLK
  8
LAYER1
  0
BLOCK
  8
LAYER1
  2
Group62
 70
     0
 10
0
 20
0
 30
0
  0
LINE
  8
LAYER1
  6
CONTINUOUS
 62
     7
 10
12.7917
 20
5.7934
 30
0
 11
13.1389
 21
5.8351
 31
0
  0
LINE
  8
LAYER1
  6
CONTINUOUS
 62
     7
 10
13.1389
 20
5.7656
 30
0
 11
12.7917
 21
5.724
 31
0
  0
POLYLINE
  8
LAYER1
  6
CONTINUOUS
 62
     7
 66
     1
 70
     0
 40
0.0039
 41
0.0039
  0
VERTEX
  8
LAYER1
 10
12.9653
 20
6.8906
 30
0
 70
     0
  0
VERTEX
  8
LAYER1
 10
12.9443
 20
6.8863
 30
0
 70
     0
  0
VERTEX
  8
LAYER1
 10
12.9246
 20
6.8732
 30
0
 70
     0
  0
VERTEX
  8
LAYER1
 10
12.9063
 20
6.8513
 30
0
 70
     0
  0
VERTEX
  8
LAYER1
 10
12.8893
 20
6.8208
 30
0
 70
     0
  0
VERTEX
  8
LAYER1
 10
12.8737
 20
6.7814
 30
0
 70
     0
  0
VERTEX
  8
LAYER1
 10
12.8595
 20
6.7334
 30
0
 70
     0
  0
VERTEX
  8
LAYER1
 10
12.8466
 20
6.6766
 30
0
 70
     0
  0
VERTEX
  8
LAYER1
 10
12.8351
 20
6.6111
 30
0
 70
     0
  0
VERTEX
  8
LAYER1
 10
12.8249
 20
6.5369
 30
0
 70
     0
  0
VERTEX
  8
LAYER1
 10
12.8161
 20
6.4539
 30
0
 70
     0
  0
VERTEX
  8
LAYER1
 10
12.8086
 20
6.3622
 30
0
 70
     0
  0
VERTEX
  8
LAYER1
 10
12.8025
 20
6.2617
 30
0
 70
     0
  0
VERTEX
  8
LAYER1
 10
12.7978
 20
6.1525
 30
0
 70
     0
  0
VERTEX
  8
LAYER1
 10
12.7944
 20
6.0346
 30
0
 70
     0
  0
VERTEX
  8
LAYER1
 10
12.7923
 20
5.908
 30
0
 70
     0
  0
VERTEX
  8
LAYER1
 10
12.7917
 20
5.7726
 30
0
 70
     0
  0
VERTEX
  8
LAYER1
 10
12.7917
 20
5.7726
 30
0
 70
     0
  0
VERTEX
  8
LAYER1
 10
12.7923
 20
5.6372
 30
0
 70
     0
  0
VERTEX
  8
LAYER1
 10
12.7944
 20
5.5105
 30
0
 70
     0
  0
VERTEX
  8
LAYER1
 10
12.7978
 20
5.3926
 30
0
 70
     0
  0
VERTEX
  8
LAYER1
 10
12.8025
 20
5.2834
 30
0
 70
     0
  0
VERTEX
  8
LAYER1
 10
12.8086
 20
5.183
 30
0
 70
     0
  0
VERTEX
  8
LAYER1
 10
12.8161
 20
5.0913
 30
0
 70
     0
  0
VERTEX
  8
LAYER1
 10
12.8249
 20
5.0083
 30
0
 70
     0
  0
VERTEX
  8
LAYER1
 10
12.8351
 20
4.934
 30
0
 70
     0
  0
VERTEX
  8
LAYER1
 10
12.8466
 20
4.8685
 30
0
 70
     0
  0
VERTEX
  8
LAYER1
 10
12.8595
 20
4.8117
 30
0
 70
     0
  0
VERTEX
  8
LAYER1
 10
12.8737
 20
4.7637
 30
0
 70
     0
  0
VERTEX
  8
LAYER1
 10
12.8893
 20
4.7244
 30
0
 70
     0
  0
VERTEX
  8
LAYER1
 10
12.9063
 20
4.6938
 30
0
 70
     0
  0
VERTEX
  8
LAYER1
 10
12.9246
 20
4.672
 30
0
 70
     0
  0
VERTEX
  8
LAYER1
 10
12.9443
 20
4.6589
 30
0
 70
     0
  0
VERTEX
  8
LAYER1
 10
12.9653
 20
4.6545
 30
0
 70
     0
  0
VERTEX
  8
LAYER1
 10
12.9653
 20
4.6545
 30
0
 70
     0
  0
VERTEX
  8
LAYER1
 10
12.9863
 20
4.6589
 30
0
 70
     0
  0
VERTEX
  8
LAYER1
 10
13.006
 20
4.672
 30
0
 70
     0
  0
VERTEX
  8
LAYER1
 10
13.0243
 20
4.6938
 30
0
 70
     0
  0
VERTEX
  8
LAYER1
 10
13.0412
 20
4.7244
 30
0
 70
     0
  0
VERTEX
  8
LAYER1
 10
13.0568
 20
4.7637
 30
0
 70
     0
  0
VERTEX
  8
LAYER1
 10
13.0711
 20
4.8117
 30
0
 70
     0
  0
VERTEX
  8
LAYER1
 10
13.0839
 20
4.8685
 30
0
 70
     0
  0
VERTEX
  8
LAYER1
 10
13.0955
 20
4.934
 30
0
 70
     0
  0
VERTEX
  8
LAYER1
 10
13.1056
 20
5.0083
 30
0
 70
     0
  0
VERTEX
  8
LAYER1
 10
13.1145
 20
5.0913
 30
0
 70
     0
  0
VERTEX
  8
LAYER1
 10
13.1219
 20
5.183
 30
0
 70
     0
  0
VERTEX
  8
LAYER1
 10
13.128
 20
5.2834
 30
0
 70
     0
  0
VERTEX
  8
LAYER1
 10
13.1328
 20
5.3926
 30
0
 70
     0
  0
VERTEX
  8
LAYER1
 10
13.1362
 20
5.5105
 30
0
 70
     0
  0
VERTEX
  8
LAYER1
 10
13.1382
 20
5.6372
 30
0
 70
     0
  0
VERTEX
  8
LAYER1
 10
13.1389
 20
5.7726
 30
0
 70
     0
  0
VERTEX
  8
LAYER1
 10
13.1389
 20
5.7726
 30
0
 70
     0
  0
VERTEX
  8
LAYER1
 10
13.1382
 20
5.908
 30
0
 70
     0
  0
VERTEX
  8
LAYER1
 10
13.1362
 20
6.0346
 30
0
 70
     0
  0
VERTEX
  8
LAYER1
 10
13.1328
 20
6.1525
 30
0
 70
     0
  0
VERTEX
  8
LAYER1
 10
13.128
 20
6.2617
 30
0
 70
     0
  0
VERTEX
  8
LAYER1
 10
13.1219
 20
6.3622
 30
0
 70
     0
  0
VERTEX
  8
LAYER1
 10
13.1145
 20
6.4539
 30
0
 70
     0
  0
VERTEX
  8
LAYER1
 10
13.1056
 20
6.5369
 30
0
 70
     0
  0
VERTEX
  8
LAYER1
 10
13.0955
 20
6.6111
 30
0
 70
     0
  0
VERTEX
  8
LAYER1
 10
13.0839
 20
6.6766
 30
0
 70
     0
  0
VERTEX
  8
LAYER1
 10
13.0711
 20
6.7334
 30
0
 70
     0
  0
VERTEX
  8
LAYER1
 10
13.0568
 20
6.7814
 30
0
 70
     0
  0
VERTEX
  8
LAYER1
 10
13.0412
 20
6.8208
 30
0
 70
     0
  0
VERTEX
  8
LAYER1
 10
13.0243
 20
6.8513
 30
0
 70
     0
  0
VERTEX
  8
LAYER1
 10
13.006
 20
6.8732
 30
0
 70
     0
  0
VERTEX
  8
LAYER1
 10
12.9863
 20
6.8863
 30
0
 70
     0
  0
VERTEX
  8
LAYER1
 10
12.9653
 20
6.8906
 30
0
 70
     0
  0
SEQEND
  0
ENDBLK
  8
LAYER1
  0
BLOCK
  8
LAYER1
  2
Group63
 70
     0
 10
0
 20
0
 30
0
  0
LINE
  8
LAYER1
  6
CONTINUOUS
 62
     7
 10
13.2222
 20
2.2795
 30
0
 11
13.5972
 21
2.3351
 31
0
  0
LINE
  8
LAYER1
  6
CONTINUOUS
 62
     7
 10
13.5972
 20
2.2656
 30
0
 11
13.2222
 21
2.224
 31
0
  0
POLYLINE
  8
LAYER1
  6
CONTINUOUS
 62
     7
 66
     1
 70
     0
 40
0.0039
 41
0.0039
  0
VERTEX
  8
LAYER1
 10
13.4097
 20
3.4878
 30
0
 70
     0
  0
VERTEX
  8
LAYER1
 10
13.387
 20
3.4831
 30
0
 70
     0
  0
VERTEX
  8
LAYER1
 10
13.3658
 20
3.4689
 30
0
 70
     0
  0
VERTEX
  8
LAYER1
 10
13.346
 20
3.4451
 30
0
 70
     0
  0
VERTEX
  8
LAYER1
 10
13.3277
 20
3.4119
 30
0
 70
     0
  0
VERTEX
  8
LAYER1
 10
13.3108
 20
3.3692
 30
0
 70
     0
  0
VERTEX
  8
LAYER1
 10
13.2955
 20
3.317
 30
0
 70
     0
  0
VERTEX
  8
LAYER1
 10
13.2816
 20
3.2552
 30
0
 70
     0
  0
VERTEX
  8
LAYER1
 10
13.2691
 20
3.184
 30
0
 70
     0
  0
VERTEX
  8
LAYER1
 10
13.2581
 20
3.1033
 30
0
 70
     0
  0
VERTEX
  8
LAYER1
 10
13.2486
 20
3.0131
 30
0
 70
     0
  0
VERTEX
  8
LAYER1
 10
13.2405
 20
2.9134
 30
0
 70
     0
  0
VERTEX
  8
LAYER1
 10
13.2339
 20
2.8043
 30
0
 70
     0
  0
VERTEX
  8
LAYER1
 10
13.2288
 20
2.6856
 30
0
 70
     0
  0
VERTEX
  8
LAYER1
 10
13.2252
 20
2.5574
 30
0
 70
     0
  0
VERTEX
  8
LAYER1
 10
13.223
 20
2.4197
 30
0
 70
     0
  0
VERTEX
  8
LAYER1
 10
13.2222
 20
2.2726
 30
0
 70
     0
  0
VERTEX
  8
LAYER1
 10
13.2222
 20
2.2726
 30
0
 70
     0
  0
VERTEX
  8
LAYER1
 10
13.223
 20
2.1254
 30
0
 70
     0
  0
VERTEX
  8
LAYER1
 10
13.2252
 20
1.9877
 30
0
 70
     0
  0
VERTEX
  8
LAYER1
 10
13.2288
 20
1.8596
 30
0
 70
     0
  0
VERTEX
  8
LAYER1
 10
13.2339
 20
1.7409
 30
0
 70
     0
  0
VERTEX
  8
LAYER1
 10
13.2405
 20
1.6317
 30
0
 70
     0
  0
VERTEX
  8
LAYER1
 10
13.2486
 20
1.532
 30
0
 70
     0
  0
VERTEX
  8
LAYER1
 10
13.2581
 20
1.4418
 30
0
 70
     0
  0
VERTEX
  8
LAYER1
 10
13.2691
 20
1.3611
 30
0
 70
     0
  0
VERTEX
  8
LAYER1
 10
13.2816
 20
1.2899
 30
0
 70
     0
  0
VERTEX
  8
LAYER1
 10
13.2955
 20
1.2282
 30
0
 70
     0
  0
VERTEX
  8
LAYER1
 10
13.3108
 20
1.176
 30
0
 70
     0
  0
VERTEX
  8
LAYER1
 10
13.3277
 20
1.1333
 30
0
 70
     0
  0
VERTEX
  8
LAYER1
 10
13.346
 20
1.1
 30
0
 70
     0
  0
VERTEX
  8
LAYER1
 10
13.3658
 20
1.0763
 30
0
 70
     0
  0
VERTEX
  8
LAYER1
 10
13.387
 20
1.062
 30
0
 70
     0
  0
VERTEX
  8
LAYER1
 10
13.4097
 20
1.0573
 30
0
 70
     0
  0
VERTEX
  8
LAYER1
 10
13.4097
 20
1.0573
 30
0
 70
     0
  0
VERTEX
  8
LAYER1
 10
13.4324
 20
1.062
 30
0
 70
     0
  0
VERTEX
  8
LAYER1
 10
13.4537
 20
1.0763
 30
0
 70
     0
  0
VERTEX
  8
LAYER1
 10
13.4734
 20
1.1
 30
0
 70
     0
  0
VERTEX
  8
LAYER1
 10
13.4918
 20
1.1333
 30
0
 70
     0
  0
VERTEX
  8
LAYER1
 10
13.5086
 20
1.176
 30
0
 70
     0
  0
VERTEX
  8
LAYER1
 10
13.524
 20
1.2282
 30
0
 70
     0
  0
VERTEX
  8
LAYER1
 10
13.5379
 20
1.2899
 30
0
 70
     0
  0
VERTEX
  8
LAYER1
 10
13.5503
 20
1.3611
 30
0
 70
     0
  0
VERTEX
  8
LAYER1
 10
13.5613
 20
1.4418
 30
0
 70
     0
  0
VERTEX
  8
LAYER1
 10
13.5709
 20
1.532
 30
0
 70
     0
  0
VERTEX
  8
LAYER1
 10
13.5789
 20
1.6317
 30
0
 70
     0
  0
VERTEX
  8
LAYER1
 10
13.5855
 20
1.7409
 30
0
 70
     0
  0
VERTEX
  8
LAYER1
 10
13.5906
 20
1.8596
 30
0
 70
     0
  0
VERTEX
  8
LAYER1
 10
13.5943
 20
1.9877
 30
0
 70
     0
  0
VERTEX
  8
LAYER1
 10
13.5965
 20
2.1254
 30
0
 70
     0
  0
VERTEX
  8
LAYER1
 10
13.5972
 20
2.2726
 30
0
 70
     0
  0
VERTEX
  8
LAYER1
 10
13.5972
 20
2.2726
 30
0
 70
     0
  0
VERTEX
  8
LAYER1
 10
13.5965
 20
2.4197
 30
0
 70
     0
  0
VERTEX
  8
LAYER1
 10
13.5943
 20
2.5574
 30
0
 70
     0
  0
VERTEX
  8
LAYER1
 10
13.5906
 20
2.6856
 30
0
 70
     0
  0
VERTEX
  8
LAYER1
 10
13.5855
 20
2.8043
 30
0
 70
     0
  0
VERTEX
  8
LAYER1
 10
13.5789
 20
2.9134
 30
0
 70
     0
  0
VERTEX
  8
LAYER1
 10
13.5709
 20
3.0131
 30
0
 70
     0
  0
VERTEX
  8
LAYER1
 10
13.5613
 20
3.1033
 30
0
 70
     0
  0
VERTEX
  8
LAYER1
 10
13.5503
 20
3.184
 30
0
 70
     0
  0
VERTEX
  8
LAYER1
 10
13.5379
 20
3.2552
 30
0
 70
     0
  0
VERTEX
  8
LAYER1
 10
13.524
 20
3.317
 30
0
 70
     0
  0
VERTEX
  8
LAYER1
 10
13.5086
 20
3.3692
 30
0
 70
     0
  0
VERTEX
  8
LAYER1
 10
13.4918
 20
3.4119
 30
0
 70
     0
  0
VERTEX
  8
LAYER1
 10
13.4734
 20
3.4451
 30
0
 70
     0
  0
VERTEX
  8
LAYER1
 10
13.4537
 20
3.4689
 30
0
 70
     0
  0
VERTEX
  8
LAYER1
 10
13.4324
 20
3.4831
 30
0
 70
     0
  0
VERTEX
  8
LAYER1
 10
13.4097
 20
3.4878
 30
0
 70
     0
  0
SEQEND
  0
ENDBLK
  8
LAYER1
  0
BLOCK
  8
LAYER1
  2
Group64
 70
     0
 10
0
 20
0
 30
0
  0
POLYLINE
  8
LAYER1
  6
CONTINUOUS
 62
     7
 66
     1
 70
     0
 40
0.0039
 41
0.0039
  0
VERTEX
  8
LAYER1
 10
10.5
 20
9.3628
 30
0
 70
     0
  0
VERTEX
  8
LAYER1
 10
10.5
 20
8.5017
 30
0
 70
     0
  0
VERTEX
  8
LAYER1
 10
10.75
 20
8.5017
 30
0
 70
     0
  0
SEQEND
  0
POLYLINE
  8
LAYER1
  6
CONTINUOUS
 62
     7
 66
     1
 70
     0
 40
0.0039
 41
0.0039
  0
VERTEX
  8
LAYER1
 10
10.75
 20
9.2934
 30
0
 70
     0
  0
VERTEX
  8
LAYER1
 10
10.75
 20
10.1545
 30
0
 70
     0
  0
VERTEX
  8
LAYER1
 10
10.5
 20
10.1545
 30
0
 70
     0
  0
VERTEX
  8
LAYER1
 10
10.4028
 20
9.3628
 30
0
 70
     0
  0
VERTEX
  8
LAYER1
 10
10.6528
 20
9.3628
 30
0
 70
     0
  0
SEQEND
  0
LINE
  8
LAYER1
  6
CONTINUOUS
 62
     7
 10
10.75
 20
10.1545
 30
0
 11
10.6528
 21
9.3628
 31
0
  0
POLYLINE
  8
LAYER1
  6
CONTINUOUS
 62
     7
 66
     1
 70
     0
 40
0.0039
 41
0.0039
  0
VERTEX
  8
LAYER1
 10
10.75
 20
8.5017
 30
0
 70
     0
  0
VERTEX
  8
LAYER1
 10
10.8472
 20
9.2934
 30
0
 70
     0
  0
VERTEX
  8
LAYER1
 10
10.5972
 20
9.2934
 30
0
 70
     0
  0
SEQEND
  0
ENDBLK
  8
LAYER1
  0
BLOCK
  8
LAYER1
  2
Group65
 70
     0
 10
0
 20
0
 30
0
  0
LINE
  8
LAYER1
  6
CONTINUOUS
 62
     7
 10
10.5
 20
8.5017
 30
0
 11
10.5972
 21
9.2934
 31
0
  0
POLYLINE
  8
LAYER1
  6
CONTINUOUS
 62
     7
 66
     1
 70
     0
 40
0.0039
 41
0.0039
  0
VERTEX
  8
LAYER1
 10
13.4444
 20
9.2934
 30
0
 70
     0
  0
VERTEX
  8
LAYER1
 10
13.4444
 20
8.3351
 30
0
 70
     0
  0
VERTEX
  8
LAYER1
 10
13.7222
 20
8.3351
 30
0
 70
     0
  0
SEQEND
  0
POLYLINE
  8
LAYER1
  6
CONTINUOUS
 62
     7
 66
     1
 70
     0
 40
0.0039
 41
0.0039
  0
VERTEX
  8
LAYER1
 10
13.7222
 20
9.224
 30
0
 70
     0
  0
VERTEX
  8
LAYER1
 10
13.7222
 20
10.1823
 30
0
 70
     0
  0
VERTEX
  8
LAYER1
 10
13.4444
 20
10.1823
 30
0
 70
     0
  0
VERTEX
  8
LAYER1
 10
13.3333
 20
9.2934
 30
0
 70
     0
  0
VERTEX
  8
LAYER1
 10
13.6111
 20
9.2934
 30
0
 70
     0
  0
SEQEND
  0
LINE
  8
LAYER1
  6
CONTINUOUS
 62
     7
 10
13.7222
 20
10.1823
 30
0
 11
13.6111
 21
9.2934
 31
0
  0
POLYLINE
  8
LAYER1
  6
CONTINUOUS
 62
     7
 66
     1
 70
     0
 40
0.0039
 41
0.0039
  0
VERTEX
  8
LAYER1
 10
13.7222
 20
8.3351
 30
0
 70
     0
  0
VERTEX
  8
LAYER1
 10
13.8333
 20
9.224
 30
0
 70
     0
  0
VERTEX
  8
LAYER1
 10
13.5556
 20
9.224
 30
0
 70
     0
  0
SEQEND
  0
ENDBLK
  8
LAYER1
  0
BLOCK
  8
LAYER1
  2
Group66
 70
     0
 10
0
 20
0
 30
0
  0
LINE
  8
LAYER1
  6
CONTINUOUS
 62
     7
 10
13.4444
 20
8.3351
 30
0
 11
13.5556
 21
9.224
 31
0
  0
LINE
  8
LAYER1
  6
CONTINUOUS
 62
     7
 10
19.3333
 20
2.7378
 30
0
 11
19.6389
 21
2.7378
 31
0
  0
LINE
  8
LAYER1
  6
CONTINUOUS
 62
     7
 10
19.8889
 20
2.6823
 30
0
 11
19.5833
 21
2.6823
 31
0
  0
POLYLINE
  8
LAYER1
  6
CONTINUOUS
 62
     7
 66
     1
 70
     0
 40
0.0039
 41
0.0039
  0
VERTEX
  8
LAYER1
 10
19.4583
 20
2.7378
 30
0
 70
     0
  0
VERTEX
  8
LAYER1
 10
19.4583
 20
1.6823
 30
0
 70
     0
  0
VERTEX
  8
LAYER1
 10
19.7639
 20
1.6823
 30
0
 70
     0
  0
SEQEND
  0
POLYLINE
  8
LAYER1
  6
CONTINUOUS
 62
     7
 66
     1
 70
     0
 40
0.0039
 41
0.0039
  0
VERTEX
  8
LAYER1
 10
19.7639
 20
2.6823
 30
0
 70
     0
  0
VERTEX
  8
LAYER1
 10
19.7639
 20
3.7378
 30
0
 70
     0
  0
VERTEX
  8
LAYER1
 10
19.4583
 20
3.7378
 30
0
 70
     0
  0
SEQEND
  0
LINE
  8
LAYER1
  6
CONTINUOUS
 62
     7
 10
19.4583
 20
1.6823
 30
0
 11
19.5833
 21
2.6823
 31
0
  0
LINE
  8
LAYER1
  6
CONTINUOUS
 62
     7
 10
19.7639
 20
1.6823
 30
0
 11
19.8889
 21
2.6823
 31
0
  0
LINE
  8
LAYER1
  6
CONTINUOUS
 62
     7
 10
19.7639
 20
3.7378
 30
0
 11
19.6389
 21
2.7378
 31
0
  0
ENDBLK
  8
LAYER1
  0
BLOCK
  8
LAYER1
  2
Group67
 70
     0
 10
0
 20
0
 30
0
  0
LINE
  8
LAYER1
  6
CONTINUOUS
 62
     7
 10
19.4583
 20
3.7378
 30
0
 11
19.3333
 21
2.7378
 31
0
  0
LINE
  8
LAYER1
  6
CONTINUOUS
 62
     7
 10
12.1111
 20
5.8073
 30
0
 11
12.4583
 21
5.8073
 31
0
  0
LINE
  8
LAYER1
  6
CONTINUOUS
 62
     7
 10
12.7222
 20
5.7517
 30
0
 11
12.3889
 21
5.7517
 31
0
  0
POLYLINE
  8
LAYER1
  6
CONTINUOUS
 62
     7
 66
     1
 70
     0
 40
0.0039
 41
0.0039
  0
VERTEX
  8
LAYER1
 10
12.25
 20
5.8073
 30
0
 70
     0
  0
VERTEX
  8
LAYER1
 10
12.25
 20
4.6545
 30
0
 70
     0
  0
VERTEX
  8
LAYER1
 10
12.5972
 20
4.6545
 30
0
 70
     0
  0
SEQEND
  0
POLYLINE
  8
LAYER1
  6
CONTINUOUS
 62
     7
 66
     1
 70
     0
 40
0.0039
 41
0.0039
  0
VERTEX
  8
LAYER1
 10
12.5972
 20
5.7517
 30
0
 70
     0
  0
VERTEX
  8
LAYER1
 10
12.5972
 20
6.8906
 30
0
 70
     0
  0
VERTEX
  8
LAYER1
 10
12.25
 20
6.8906
 30
0
 70
     0
  0
VERTEX
  8
LAYER1
 10
12.1111
 20
5.8073
 30
0
 70
     0
  0
SEQEND
  0
LINE
  8
LAYER1
  6
CONTINUOUS
 62
     7
 10
12.5972
 20
6.8906
 30
0
 11
12.4583
 21
5.8073
 31
0
  0
LINE
  8
LAYER1
  6
CONTINUOUS
 62
     7
 10
12.25
 20
4.6545
 30
0
 11
12.3889
 21
5.7517
 31
0
  0
ENDBLK
  8
LAYER1
  0
BLOCK
  8
LAYER1
  2
Group68
 70
     0
 10
0
 20
0
 30
0
  0
LINE
  8
LAYER1
  6
CONTINUOUS
 62
     7
 10
12.5972
 20
4.6545
 30
0
 11
12.7222
 21
5.7517
 31
0
  0
LINE
  8
LAYER1
  6
CONTINUOUS
 62
     7
 10
12.3056
 20
2.3073
 30
0
 11
12.6806
 21
2.3073
 31
0
  0
LINE
  8
LAYER1
  6
CONTINUOUS
 62
     7
 10
12.9722
 20
2.2517
 30
0
 11
12.5972
 21
2.2517
 31
0
  0
POLYLINE
  8
LAYER1
  6
CONTINUOUS
 62
     7
 66
     1
 70
     0
 40
0.0039
 41
0.0039
  0
VERTEX
  8
LAYER1
 10
12.4583
 20
2.3073
 30
0
 70
     0
  0
VERTEX
  8
LAYER1
 10
12.4583
 20
1.0573
 30
0
 70
     0
  0
VERTEX
  8
LAYER1
 10
12.8333
 20
1.0573
 30
0
 70
     0
  0
SEQEND
  0
POLYLINE
  8
LAYER1
  6
CONTINUOUS
 62
     7
 66
     1
 70
     0
 40
0.0039
 41
0.0039
  0
VERTEX
  8
LAYER1
 10
12.8333
 20
2.2517
 30
0
 70
     0
  0
VERTEX
  8
LAYER1
 10
12.8333
 20
3.4878
 30
0
 70
     0
  0
VERTEX
  8
LAYER1
 10
12.4583
 20
3.4878
 30
0
 70
     0
  0
VERTEX
  8
LAYER1
 10
12.3056
 20
2.3073
 30
0
 70
     0
  0
SEQEND
  0
LINE
  8
LAYER1
  6
CONTINUOUS
 62
     7
 10
12.8333
 20
3.4878
 30
0
 11
12.6806
 21
2.3073
 31
0
  0
LINE
  8
LAYER1
  6
CONTINUOUS
 62
     7
 10
12.8333
 20
1.0573
 30
0
 11
12.9722
 21
2.2517
 31
0
  0
ENDBLK
  8
LAYER1
  0
BLOCK
  8
LAYER1
  2
Group69
 70
     0
 10
0
 20
0
 30
0
  0
TEXT
  8
LAYER1
 62
     7
 10
13.299
 20
0.2412
 30
0
 40
0.0833
  1
©1992
 50
0
999
Geneva
  0
TEXT
  8
LAYER1
 62
     7
 10
12.5906
 20
0.0745
 30
0
 40
0.0833
  1
Advanced System Design, Inc.
 50
0
999
Geneva
  0
TEXT
  8
LAYER1
 62
     7
 10
8.5212
 20
0.0884
 30
0
 40
0.0833
  1
Scale 1:1  Printed at 70%
 50
0
999
Geneva
  0
ENDBLK
  8
LAYER1
  0
BLOCK
  8
LAYER1
  2
Group70
 70
     0
 10
0
 20
0
 30
0
  0
TEXT
  8
LAYER1
 62
     7
 10
14.7156
 20
10.5606
 30
0
 40
0.125
  1
Washers - Lock
 50
0
999
Geneva
  0
LINE
  8
LAYER1
  6
CONTINUOUS
 62
     7
 10
12.4583
 20
1.0573
 30
0
 11
12.5972
 21
2.2517
 31
0
  0
LINE
  8
LAYER1
  6
CONTINUOUS
 62
     7
 10
14.6806
 20
10.7934
 30
0
 11
19.1389
 21
10.7934
 31
0
  0
ENDBLK
  8
LAYER1
  0
BLOCK
  8
LAYER1
  2
Group71
 70
     0
 10
0
 20
0
 30
0
  0
TEXT
  8
LAYER1
 62
     7
 10
2.5073
 20
0.0189
 30
0
 40
0.1389
  1
- 4-285 -
 50
0
999
Geneva
  0
TEXT
  8
LAYER1
 62
     7
 10
10.7295
 20
0.0189
 30
0
 40
0.1389
  1
- 4-286 -
 50
0
999
Geneva
  0
TEXT
  8
LAYER1
 62
     7
 10
17.0629
 20
0.0745
 30
0
 40
0.1389
  1
- 4-287 -
 50
0
999
Geneva
  0
TEXT
  8
LAYER1
 62
     7
 10
16.8962
 20
8.2967
 30
0
 40
0.0833
  1
LW.446x.779
 50
0
999
Geneva
  0
TEXT
  8
LAYER1
 62
     7
 10
18.4795
 20
8.2967
 30
0
 40
0.0833
  1
LW.509x.873
 50
0
999
Geneva
  0
TEXT
  8
LAYER1
 62
     7
 10
15.2017
 20
4.9912
 30
0
 40
0.0833
  1
LW.572x.971
 50
0
999
Geneva
  0
TEXT
  8
LAYER1
 62
     7
 10
16.924
 20
4.9495
 30
0
 40
0.0833
  1
LW.636x1.079
 50
0
999
Geneva
  0
TEXT
  8
LAYER1
 62
     7
 10
18.5629
 20
4.9495
 30
0
 40
0.0833
  1
LW.763x1.271
 50
0
999
Geneva
  0
TEXT
  8
LAYER1
 62
     7
 10
15.6462
 20
1.7412
 30
0
 40
0.0833
  1
LW.890x1.464
 50
0
999
Geneva
  0
TEXT
  8
LAYER1
 62
     7
 10
9.2017
 20
7.7828
 30
0
 40
0.0833
  1
LW1.017x1.661
 50
0
999
Geneva
  0
TEXT
  8
LAYER1
 62
     7
 10
12.0767
 20
7.7967
 30
0
 40
0.0833
  1
LW1.144x1.853
 50
0
999
Geneva
  0
TEXT
  8
LAYER1
 62
     7
 10
10.8684
 20
4.2273
 30
0
 40
0.0833
  1
LW1.398x2.239
 50
0
999
Geneva
  0
TEXT
  8
LAYER1
 62
     7
 10
18.4379
 20
1.1717
 30
0
 40
0.0833
  1
LW1.271x2.045
 50
0
999
Geneva
  0
TEXT
  8
LAYER1
 62
     7
 10
11.0629
 20
0.6995
 30
0
 40
0.0833
  1
LW1.525x2.430
 50
0
999
Geneva
  0
TEXT
  8
LAYER1
 62
     7
 10
15.6323
 20
8.3106
 30
0
 40
0.0833
  1
LW.382x.683
 50
0
999
Geneva
  0
INSERT
  8
LAYER1
  2
Group1
 10
0
 20
0
 30
0
  0
INSERT
  8
LAYER1
  2
Group2
 10
0
 20
0
 30
0
  0
INSERT
  8
LAYER1
  2
Group3
 10
0
 20
0
 30
0
  0
INSERT
  8
LAYER1
  2
Group4
 10
0
 20
0
 30
0
  0
INSERT
  8
LAYER1
  2
Group5
 10
0
 20
0
 30
0
  0
INSERT
  8
LAYER1
  2
Group6
 10
0
 20
0
 30
0
  0
INSERT
  8
LAYER1
  2
Group7
 10
0
 20
0
 30
0
  0
INSERT
  8
LAYER1
  2
Group8
 10
0
 20
0
 30
0
  0
INSERT
  8
LAYER1
  2
Group9
 10
0
 20
0
 30
0
  0
INSERT
  8
LAYER1
  2
Group10
 10
0
 20
0
 30
0
  0
INSERT
  8
LAYER1
  2
Group11
 10
0
 20
0
 30
0
  0
INSERT
  8
LAYER1
  2
Group12
 10
0
 20
0
 30
0
  0
INSERT
  8
LAYER1
  2
Group13
 10
0
 20
0
 30
0
  0
INSERT
  8
LAYER1
  2
Group14
 10
0
 20
0
 30
0
  0
INSERT
  8
LAYER1
  2
Group15
 10
0
 20
0
 30
0
  0
INSERT
  8
LAYER1
  2
Group16
 10
0
 20
0
 30
0
  0
INSERT
  8
LAYER1
  2
Group17
 10
0
 20
0
 30
0
  0
INSERT
  8
LAYER1
  2
Group18
 10
0
 20
0
 30
0
  0
INSERT
  8
LAYER1
  2
Group19
 10
0
 20
0
 30
0
  0
INSERT
  8
LAYER1
  2
Group20
 10
0
 20
0
 30
0
  0
INSERT
  8
LAYER1
  2
Group21
 10
0
 20
0
 30
0
  0
TEXT
  8
LAYER1
 62
     7
 10
0.6323
 20
9.1301
 30
0
 40
0.0833
  1
LW.088x.172
 50
0
999
Geneva
  0
INSERT
  8
LAYER1
  2
Group22
 10
0
 20
0
 30
0
  0
INSERT
  8
LAYER1
  2
Group23
 10
0
 20
0
 30
0
  0
INSERT
  8
LAYER1
  2
Group24
 10
0
 20
0
 30
0
  0
TEXT
  8
LAYER1
 62
     7
 10
2.2017
 20
9.1301
 30
0
 40
0.0833
  1
LW.101x.195
 50
0
999
Geneva
  0
INSERT
  8
LAYER1
  2
Group25
 10
0
 20
0
 30
0
  0
INSERT
  8
LAYER1
  2
Group26
 10
0
 20
0
 30
0
  0
INSERT
  8
LAYER1
  2
Group27
 10
0
 20
0
 30
0
  0
TEXT
  8
LAYER1
 62
     7
 10
2.2017
 20
7.6995
 30
0
 40
0.0833
  1
LW.141x.250
 50
0
999
Geneva
  0
INSERT
  8
LAYER1
  2
Group28
 10
0
 20
0
 30
0
  0
INSERT
  8
LAYER1
  2
Group29
 10
0
 20
0
 30
0
  0
INSERT
  8
LAYER1
  2
Group30
 10
0
 20
0
 30
0
  0
TEXT
  8
LAYER1
 62
     7
 10
0.6323
 20
7.6995
 30
0
 40
0.0833
  1
LW.128x.236
 50
0
999
Geneva
  0
INSERT
  8
LAYER1
  2
Group31
 10
0
 20
0
 30
0
  0
INSERT
  8
LAYER1
  2
Group32
 10
0
 20
0
 30
0
  0
INSERT
  8
LAYER1
  2
Group33
 10
0
 20
0
 30
0
  0
TEXT
  8
LAYER1
 62
     7
 10
3.7156
 20
9.1301
 30
0
 40
0.0833
  1
LW.115x.209
 50
0
999
Geneva
  0
INSERT
  8
LAYER1
  2
Group34
 10
0
 20
0
 30
0
  0
INSERT
  8
LAYER1
  2
Group35
 10
0
 20
0
 30
0
  0
INSERT
  8
LAYER1
  2
Group36
 10
0
 20
0
 30
0
  0
TEXT
  8
LAYER1
 62
     7
 10
0.6323
 20
4.8245
 30
0
 40
0.0833
  1
LW.318x.586
 50
0
999
Geneva
  0
INSERT
  8
LAYER1
  2
Group37
 10
0
 20
0
 30
0
  0
INSERT
  8
LAYER1
  2
Group38
 10
0
 20
0
 30
0
  0
INSERT
  8
LAYER1
  2
Group39
 10
0
 20
0
 30
0
  0
TEXT
  8
LAYER1
 62
     7
 10
3.7295
 20
6.3106
 30
0
 40
0.0833
  1
LW.255x.489
 50
0
999
Geneva
  0
INSERT
  8
LAYER1
  2
Group40
 10
0
 20
0
 30
0
  0
INSERT
  8
LAYER1
  2
Group41
 10
0
 20
0
 30
0
  0
INSERT
  8
LAYER1
  2
Group42
 10
0
 20
0
 30
0
  0
TEXT
  8
LAYER1
 62
     7
 10
2.2017
 20
6.3106
 30
0
 40
0.0833
  1
LW.221x.377
 50
0
999
Geneva
  0
INSERT
  8
LAYER1
  2
Group43
 10
0
 20
0
 30
0
  0
INSERT
  8
LAYER1
  2
Group44
 10
0
 20
0
 30
0
  0
INSERT
  8
LAYER1
  2
Group45
 10
0
 20
0
 30
0
  0
TEXT
  8
LAYER1
 62
     7
 10
0.6323
 20
6.3106
 30
0
 40
0.0833
  1
LW.194x.334
 50
0
999
Geneva
  0
INSERT
  8
LAYER1
  2
Group46
 10
0
 20
0
 30
0
  0
INSERT
  8
LAYER1
  2
Group47
 10
0
 20
0
 30
0
  0
INSERT
  8
LAYER1
  2
Group48
 10
0
 20
0
 30
0
  0
TEXT
  8
LAYER1
 62
     7
 10
3.7295
 20
7.6995
 30
0
 40
0.0833
  1
LW.168x.293
 50
0
999
Geneva
  0
INSERT
  8
LAYER1
  2
Group49
 10
0
 20
0
 30
0
  0
INSERT
  8
LAYER1
  2
Group50
 10
0
 20
0
 30
0
  0
INSERT
  8
LAYER1
  2
Group51
 10
0
 20
0
 30
0
  0
INSERT
  8
LAYER1
  2
Group52
 10
0
 20
0
 30
0
  0
INSERT
  8
LAYER1
  2
Group53
 10
0
 20
0
 30
0
  0
INSERT
  8
LAYER1
  2
Group54
 10
0
 20
0
 30
0
  0
INSERT
  8
LAYER1
  2
Group55
 10
0
 20
0
 30
0
  0
INSERT
  8
LAYER1
  2
Group56
 10
0
 20
0
 30
0
  0
INSERT
  8
LAYER1
  2
Group57
 10
0
 20
0
 30
0
  0
INSERT
  8
LAYER1
  2
Group58
 10
0
 20
0
 30
0
  0
INSERT
  8
LAYER1
  2
Group59
 10
0
 20
0
 30
0
  0
INSERT
  8
LAYER1
  2
Group60
 10
0
 20
0
 30
0
  0
INSERT
  8
LAYER1
  2
Group61
 10
0
 20
0
 30
0
  0
INSERT
  8
LAYER1
  2
Group62
 10
0
 20
0
 30
0
  0
INSERT
  8
LAYER1
  2
Group63
 10
0
 20
0
 30
0
  0
INSERT
  8
LAYER1
  2
Group64
 10
0
 20
0
 30
0
  0
INSERT
  8
LAYER1
  2
Group65
 10
0
 20
0
 30
0
  0
INSERT
  8
LAYER1
  2
Group66
 10
0
 20
0
 30
0
  0
INSERT
  8
LAYER1
  2
Group67
 10
0
 20
0
 30
0
  0
INSERT
  8
LAYER1
  2
Group68
 10
0
 20
0
 30
0
  0
TEXT
  8
LAYER1
 62
     7
 10
4.9379
 20
0.2412
 30
0
 40
0.0833
  1
©1992
 50
0
999
Geneva
  0
TEXT
  8
LAYER1
 62
     7
 10
4.2295
 20
0.0745
 30
0
 40
0.0833
  1
Advanced System Design, Inc.
 50
0
999
Geneva
  0
TEXT
  8
LAYER1
 62
     7
 10
0.2573
 20
0.1023
 30
0
 40
0.0833
  1
Scale 1:1  Printed at 70%
 50
0
999
Geneva
  0
INSERT
  8
LAYER1
  2
Group69
 10
0
 20
0
 30
0
  0
INSERT
  8
LAYER1
  2
Group70
 10
0
 20
0
 30
0
  0
TEXT
  8
LAYER1
 62
     7
 10
14.6879
 20
0.0884
 30
0
 40
0.0833
  1
Scale 1:1 Printed at 70%
 50
0
999
Geneva
  0
TEXT
  8
LAYER1
 62
     7
 10
18.6601
 20
0.2412
 30
0
 40
0.0833
  1
©1989,1990,1991,1992
 50
0
999
Geneva
  0
TEXT
  8
LAYER1
 62
     7
 10
18.5351
 20
0.0745
 30
0
 40
0.0833
  1
Advanced System Design, Inc.
 50
0
999
Geneva
  0
TEXT
  8
LAYER1
 62
     7
 10
0.299
 20
8.9773
 30
0
 40
0.0833
  1
58000
 50
0
999
Geneva
  0
TEXT
  8
LAYER1
 62
     7
 10
0.799
 20
8.9773
 30
0
 40
0.0833
  1
58001
 50
0
999
Geneva
  0
TEXT
  8
LAYER1
 62
     7
 10
1.299
 20
8.9773
 30
0
 40
0.0833
  1
58002
 50
0
999
Geneva
  0
TEXT
  8
LAYER1
 62
     7
 10
1.8823
 20
8.9773
 30
0
 40
0.0833
  1
58003
 50
0
999
Geneva
  0
TEXT
  8
LAYER1
 62
     7
 10
2.3962
 20
8.9773
 30
0
 40
0.0833
  1
58004
 50
0
999
Geneva
  0
TEXT
  8
LAYER1
 62
     7
 10
2.8962
 20
8.9773
 30
0
 40
0.0833
  1
58005
 50
0
999
Geneva
  0
TEXT
  8
LAYER1
 62
     7
 10
3.6045
 20
8.9773
 30
0
 40
0.0833
  1
58006
 50
0
999
Geneva
  0
TEXT
  8
LAYER1
 62
     7
 10
4.1045
 20
8.9773
 30
0
 40
0.0833
  1
58007
 50
0
999
Geneva
  0
TEXT
  8
LAYER1
 62
     7
 10
4.6045
 20
8.9773
 30
0
 40
0.0833
  1
58008
 50
0
999
Geneva
  0
TEXT
  8
LAYER1
 62
     7
 10
0.2017
 20
7.4773
 30
0
 40
0.0833
  1
58009
 50
0
999
Geneva
  0
TEXT
  8
LAYER1
 62
     7
 10
0.799
 20
7.4773
 30
0
 40
0.0833
  1
58010
 50
0
999
Geneva
  0
TEXT
  8
LAYER1
 62
     7
 10
1.299
 20
7.4773
 30
0
 40
0.0833
  1
58011
 50
0
999
Geneva
  0
TEXT
  8
LAYER1
 62
     7
 10
1.8823
 20
7.4773
 30
0
 40
0.0833
  1
58012
 50
0
999
Geneva
  0
TEXT
  8
LAYER1
 62
     7
 10
2.3823
 20
7.4773
 30
0
 40
0.0833
  1
58013
 50
0
999
Geneva
  0
TEXT
  8
LAYER1
 62
     7
 10
2.8823
 20
7.4773
 30
0
 40
0.0833
  1
58014
 50
0
999
Geneva
  0
TEXT
  8
LAYER1
 62
     7
 10
3.6045
 20
7.4773
 30
0
 40
0.0833
  1
58015
 50
0
999
Geneva
  0
TEXT
  8
LAYER1
 62
     7
 10
4.0906
 20
7.4773
 30
0
 40
0.0833
  1
58016
 50
0
999
Geneva
  0
TEXT
  8
LAYER1
 62
     7
 10
4.5906
 20
7.4773
 30
0
 40
0.0833
  1
58017
 50
0
999
Geneva
  0
TEXT
  8
LAYER1
 62
     7
 10
0.299
 20
6.0745
 30
0
 40
0.0833
  1
58018
 50
0
999
Geneva
  0
TEXT
  8
LAYER1
 62
     7
 10
0.799
 20
6.0745
 30
0
 40
0.0833
  1
58019
 50
0
999
Geneva
  0
TEXT
  8
LAYER1
 62
     7
 10
1.299
 20
6.0745
 30
0
 40
0.0833
  1
58020
 50
0
999
Geneva
  0
TEXT
  8
LAYER1
 62
     7
 10
1.8823
 20
6.0745
 30
0
 40
0.0833
  1
58021
 50
0
999
Geneva
  0
TEXT
  8
LAYER1
 62
     7
 10
2.3962
 20
6.0745
 30
0
 40
0.0833
  1
58022
 50
0
999
Geneva
  0
TEXT
  8
LAYER1
 62
     7
 10
2.8962
 20
6.0745
 30
0
 40
0.0833
  1
58023
 50
0
999
Geneva
  0
TEXT
  8
LAYER1
 62
     7
 10
3.4934
 20
6.0745
 30
0
 40
0.0833
  1
58024
 50
0
999
Geneva
  0
TEXT
  8
LAYER1
 62
     7
 10
3.9934
 20
6.0745
 30
0
 40
0.0833
  1
58025
 50
0
999
Geneva
  0
TEXT
  8
LAYER1
 62
     7
 10
4.4934
 20
6.0745
 30
0
 40
0.0833
  1
58026
 50
0
999
Geneva
  0
TEXT
  8
LAYER1
 62
     7
 10
0.299
 20
4.5745
 30
0
 40
0.0833
  1
58027
 50
0
999
Geneva
  0
TEXT
  8
LAYER1
 62
     7
 10
0.7851
 20
4.5745
 30
0
 40
0.0833
  1
58028
 50
0
999
Geneva
  0
TEXT
  8
LAYER1
 62
     7
 10
1.2851
 20
4.5745
 30
0
 40
0.0833
  1
58029
 50
0
999
Geneva
  0
TEXT
  8
LAYER1
 62
     7
 10
8.799
 20
7.5745
 30
0
 40
0.0833
  1
58030
 50
0
999
Geneva
  0
TEXT
  8
LAYER1
 62
     7
 10
9.799
 20
7.5745
 30
0
 40
0.0833
  1
58031
 50
0
999
Geneva
  0
TEXT
  8
LAYER1
 62
     7
 10
10.7017
 20
7.5745
 30
0
 40
0.0833
  1
58032
 50
0
999
Geneva
  0
TEXT
  8
LAYER1
 62
     7
 10
11.9934
 20
7.5745
 30
0
 40
0.0833
  1
58033
 50
0
999
Geneva
  0
TEXT
  8
LAYER1
 62
     7
 10
12.9934
 20
7.5745
 30
0
 40
0.0833
  1
58034
 50
0
999
Geneva
  0
TEXT
  8
LAYER1
 62
     7
 10
13.8962
 20
7.5745
 30
0
 40
0.0833
  1
58035
 50
0
999
Geneva
  0
TEXT
  8
LAYER1
 62
     7
 10
10.6045
 20
4.0745
 30
0
 40
0.0833
  1
58036
 50
0
999
Geneva
  0
TEXT
  8
LAYER1
 62
     7
 10
11.9934
 20
4.0745
 30
0
 40
0.0833
  1
58037
 50
0
999
Geneva
  0
TEXT
  8
LAYER1
 62
     7
 10
12.8962
 20
4.0745
 30
0
 40
0.0833
  1
58038
 50
0
999
Geneva
  0
TEXT
  8
LAYER1
 62
     7
 10
10.3962
 20
0.5745
 30
0
 40
0.0833
  1
58039
 50
0
999
Geneva
  0
TEXT
  8
LAYER1
 62
     7
 10
12.3962
 20
0.5745
 30
0
 40
0.0833
  1
58040
 50
0
999
Geneva
  0
TEXT
  8
LAYER1
 62
     7
 10
13.2017
 20
0.5745
 30
0
 40
0.0833
  1
58041
 50
0
999
Geneva
  0
TEXT
  8
LAYER1
 62
     7
 10
15.3962
 20
8.0745
 30
0
 40
0.0833
  1
58042
 50
0
999
Geneva
  0
TEXT
  8
LAYER1
 62
     7
 10
15.8823
 20
8.0745
 30
0
 40
0.0833
  1
58043
 50
0
999
Geneva
  0
TEXT
  8
LAYER1
 62
     7
 10
16.3962
 20
8.0745
 30
0
 40
0.0833
  1
58044
 50
0
999
Geneva
  0
TEXT
  8
LAYER1
 62
     7
 10
16.8962
 20
8.0745
 30
0
 40
0.0833
  1
58045
 50
0
999
Geneva
  0
TEXT
  8
LAYER1
 62
     7
 10
17.3823
 20
8.0745
 30
0
 40
0.0833
  1
58046
 50
0
999
Geneva
  0
TEXT
  8
LAYER1
 62
     7
 10
17.8962
 20
8.0745
 30
0
 40
0.0833
  1
58047
 50
0
999
Geneva
  0
TEXT
  8
LAYER1
 62
     7
 10
18.4934
 20
8.0745
 30
0
 40
0.0833
  1
58048
 50
0
999
Geneva
  0
TEXT
  8
LAYER1
 62
     7
 10
18.9934
 20
8.0745
 30
0
 40
0.0833
  1
58049
 50
0
999
Geneva
  0
TEXT
  8
LAYER1
 62
     7
 10
19.4934
 20
8.0745
 30
0
 40
0.0833
  1
58050
 50
0
999
Geneva
  0
TEXT
  8
LAYER1
 62
     7
 10
14.9934
 20
4.7828
 30
0
 40
0.0833
  1
58051
 50
0
999
Geneva
  0
TEXT
  8
LAYER1
 62
     7
 10
15.4934
 20
4.7828
 30
0
 40
0.0833
  1
58052
 50
0
999
Geneva
  0
TEXT
  8
LAYER1
 62
     7
 10
16.1045
 20
4.7828
 30
0
 40
0.0833
  1
58053
 50
0
999
Geneva
  0
TEXT
  8
LAYER1
 62
     7
 10
16.8962
 20
4.7828
 30
0
 40
0.0833
  1
58054
 50
0
999
Geneva
  0
TEXT
  8
LAYER1
 62
     7
 10
17.3962
 20
4.7828
 30
0
 40
0.0833
  1
58055
 50
0
999
Geneva
  0
TEXT
  8
LAYER1
 62
     7
 10
17.9934
 20
4.7828
 30
0
 40
0.0833
  1
58056
 50
0
999
Geneva
  0
TEXT
  8
LAYER1
 62
     7
 10
18.799
 20
4.7828
 30
0
 40
0.0833
  1
58057
 50
0
999
Geneva
  0
TEXT
  8
LAYER1
 62
     7
 10
19.799
 20
4.7828
 30
0
 40
0.0833
  1
58058
 50
0
999
Geneva
  0
TEXT
  8
LAYER1
 62
     7
 10
20.299
 20
4.7828
 30
0
 40
0.0833
  1
58059
 50
0
999
Geneva
  0
TEXT
  8
LAYER1
 62
     7
 10
15.3962
 20
1.5745
 30
0
 40
0.0833
  1
58060
 50
0
999
Geneva
  0
TEXT
  8
LAYER1
 62
     7
 10
16.3962
 20
1.5745
 30
0
 40
0.0833
  1
58061
 50
0
999
Geneva
  0
TEXT
  8
LAYER1
 62
     7
 10
16.8962
 20
1.5745
 30
0
 40
0.0833
  1
58062
 50
0
999
Geneva
  0
TEXT
  8
LAYER1
 62
     7
 10
17.8962
 20
0.9773
 30
0
 40
0.0833
  1
58063
 50
0
999
Geneva
  0
TEXT
  8
LAYER1
 62
     7
 10
19.3962
 20
0.9773
 30
0
 40
0.0833
  1
58064
 50
0
999
Geneva
  0
TEXT
  8
LAYER1
 62
     7
 10
19.8962
 20
0.9773
 30
0
 40
0.0833
  1
58065
 50
0
999
Geneva
  0
TEXT
  8
LAYER1
 62
     7
 10
3.8962
 20
9.7828
 30
0
 40
0.0556
  1
 (p)  (e1) (e2)
 50
0
999
Geneva
  0
TEXT
  8
LAYER1
 62
     7
 10
9.3684
 20
10.2967
 30
0
 40
0.0833
  1
(p)
 50
0
999
Geneva
  0
TEXT
  8
LAYER1
 62
     7
 10
10.4795
 20
10.3106
 30
0
 40
0.0833
  1
(e1)
 50
0
999
Geneva
  0
TEXT
  8
LAYER1
 62
     7
 10
10.9934
 20
10.3106
 30
0
 40
0.0833
  1
(e2)
 50
0
999
Geneva
  0
TEXT
  8
LAYER1
 62
     7
 10
18.5629
 20
9.7689
 30
0
 40
0.0833
  1
(p)
 50
0
999
Geneva
  0
TEXT
  8
LAYER1
 62
     7
 10
19.1601
 20
9.7828
 30
0
 40
0.0833
  1
(e1)
 50
0
999
Geneva
  0
TEXT
  8
LAYER1
 62
     7
 10
19.5351
 20
9.7828
 30
0
 40
0.0833
  1
(e2)
 50
0
999
Geneva
  0
ENDBLK
  8
LAYER1
  0
ENDSEC
  0
SECTION
  2
ENTITIES
  0
INSERT
  8
LAYER1
  2
Group71
 10
0
 20
0
 30
0
  0
ENDSEC
  0
EOF
